PrimaNota.ru - самый крупный в мире бесплатный архив песенных текстов, аккордов, табулатур и нот


Doughboys - Fix Me - аккорды и текст, таба, видео

Регистрация Запомнить меня
Войти через:  Facebook Google Twitter Vk Yandex Mail.ru

Doughboys - Fix Me - аккорды и текст, таба, видео

Печатать
Просмотров: 146
Fix Me
Doughboys
		   -##

Titre:         Fix Me
Groupe:        Doughboys
Album:         Crush
Ecrit Par:     Doughboys
Transcrit Par: B.Lamoureux
----------------------------------------------------------------------
I just wrote the chors, find the rhytm by yourself
----------------------------------------------------------------------






|-------------------|---|------------------------------------------------
|-------------------|---|------------------------------------------------
|----4---4----------|-9-|------------------------------------------------
|-2--4-2-4-2--4/6-4-|-9-|------------------------------------------------
|-2--2-2-2-2--4/6-4-|-7-|------------------------------------------------
|-0----0---0--2/4-2-|-0-|------------------------------------------------


guitar 1
Nother less that victory ...
p.m...............................................
|------------------------------------------------------------------------
|----------------------------------------------------5--4--5-------------
|----------------------------------------------------4--4--4-------------
|-6---------4---------2-----------6--------4---------2--2--2-------------
|-6---------4---------2-----------6--------4---------2--2--2-------------
|-4---------2---------0-----------4--------2---------0--0--0-------------


guitar 2


|----0---------0---------------------0---------0-------------------------
|----0---------0---------4---5-------0---------0-------------------------
|---4--4------4--4------4--4--4-4---4--4------4--4----9--8--9------------
|--6----6----4----4----2----2------6----6----4----4---9--9--9------------
|-6------6--4------4--2-----------6------6--4------4--7--7--7------------
|-----------------------------------------------------0--0--0------------


And I'm waiting...
use a lot of flanger

|-0---0--------------|-----------|---------------------------------------
|-5---7---5----------|-----------|---------------------------------------
|-4---8---4---2------|4--9--6--9-|---------------------------------------
|-6---8---2---2------|4--9--6--9-|---------------------------------------
|-4---6---2---0------|2--7--4--7-|---------------------------------------
|---------0----------|-----------|---------------------------------------


(It's not exactly the solo but it's sound near,anyway bang on your
guitar and do whatever it could sound great!)
SOLO
|-12--9--11---7h9p7h9p7--7h11p7h11p7h11p7--|-----------------------------
|-12--9--9----7----------7-----------------|-----------------------------
|-0---0--0----0----------0-----------------|-----------------------------
|-0---0--0----0----------0-----------------|-----------------------------
|------------------------------------------|-----------------------------
|------------------------------------------|-----------------------------


Ce fichier a ‚t‚ cr‚e par Tab 1.1     
Добавлено: 11.09.2013
Вам также может быть интересно:
Другие материалы по этой песне:
  • Аккорды и текст

Страница создана 29.06.2012
http://primanota.ru/doughboys/fix-me-chords.htm
Привет, Гость.
Предлагаем пройти революционный курс по гитаре.
Подарок от PrimaNota.Ru, забирай!