PrimaNota.ru - самый крупный в мире бесплатный архив песенных текстов, аккордов, табулатур и нот


Doug Sahm - Is Anybody Going To San Antone - аккорды и текст, видео

Регистрация Запомнить меня
Войти через:  Facebook Google Twitter Vk Yandex Mail.ru

Doug Sahm - Is Anybody Going To San Antone - аккорды и текст, видео

Печатать
Просмотров: 115
Уроки эстрадного вокала в Санкт-Петербурге
Is Anybody Going To San Antone
Doug Sahm
A

A D E A  x2

A                      D                 E               A  
Rain dripping off the  brim of my hat it sure looks cold today
A                    D            E                            A
Here I am walkin down  Sixty Six  wish she hadn't done me this  way
A                            D               E                A
Sleeping under a table in a roadside park a man could wake up dead
A                         D           E                         A
But it sure seems warmer  than it did  sleeping in a king size bed
A                    D             E          A
Is anybody going to  San Antone or Phoenix Arizona
A                          D                 E            A
Any place is all right as long as I can forget I've ever  known her

A D E A  x2

A                     D                        E               A
Wind whippin down the neck of my shirt like I aint got nothin on
A                        D                  E                     A
But I'd rather fight the wind and rain than what I was fightin at home
A                    D             E           A
Is anybody going to  San Antone or Phoenix Arizona
A                          D                 E            A
Any place is all right as long as I can forget I've ever  known her.


SOLO (A D E A  x2)
e|------------------------------------------------------------------------|
B|------------------------------------------------------------------------|
G|---4/6-6-6-4/6-6-6--4-----------------2--6---4-4\2----------------------|
D|-----------------------7--4------4\2------------------------------------|
A|------------------------------------------------------------------------|
E|------------------------------------------------------------------------|

e|---------------4h5-----------------------5--/9--7-7\5-----------5-------|
B|-------0h2—3/5---------5/7\5/7-\5----7p5----------------------5---------|
G|---1h2----------------------------------------------------6h7-----------|
D|------------------------------------------------------------------------|
A|------------------------------------------------------------------------|
E|------------------------------------------------------------------------|


A                            D          E                          A
Yonder comes a truck with the U.S. mail people writin letters back home
A                              D              E                A  
Well Tommorrow she'll  want me back again and I'll  be just as gone
A                    D             E          A
Is anybody going to  San Antone or Phoenix Arizona
A                         D                 E             A
Any place is all right as long as I can forget I've ever  known her
A                         D                 E             A
Any place is all right as long as I can forget I've ever  known her

A D E A  x2

Добавлено: 28.02.2012
Другие материалы по этой песне:
  • Аккорды и текст

Страница создана 28.02.2012
http://primanota.ru/doug-sahm/is-anybody-going-to-san-antone-chords.htm
Привет, Гость.
Предлагаем пройти революционный курс по гитаре.
Подарок от PrimaNota.Ru, забирай!