PrimaNota.ru - самый крупный в мире бесплатный архив песенных текстов, аккордов, табулатур и нот


Doug Sahm - I Dont Want To Go Home - аккорды и текст, видео

Регистрация Запомнить меня
Войти через:  Facebook Google Twitter Vk Yandex Mail.ru

Doug Sahm - I Dont Want To Go Home - аккорды и текст, видео

Печатать
Просмотров: 152
Уроки эстрадного вокала в Санкт-Петербурге
I Dont Want To Go Home
Doug Sahm
A very beautiful song, but I can't hear what that last word of the verses is! 
Please comment if you know.

Intro:

                  Em           A                         D      D7M      D6
e|---------------------------------------------------------------------------|
B|---------------------------------------------------------------------------|
G|---------------------------------------------------------------------------|
D|-7h9--7--------------------------------------------------------------------|
A|---------9/7--5--7---------------7-7h9--7--5------5h7--5-------------------|
E|----------------------------------------------5h7--------------------------|

                      Em        A                         D    D7M       D6
e|---------------------------------------------------------------------------|
B|---------------------------------------------------------------------------|
G|---------------------------------------------------------------------------|
D|---------------------------------------------------------------------------|
A|------5------5------5h7-----------7-7h9--7--5------5h7--5------------------|
E|--5h7----5h7----5h7----------------------------5h7-------------------------|



Verse:
 (no chord)               Em
I've been traveling over miles
A7                    D          D7M         D6      D7M  
     And I don't want to go home
                     Em
And I stayed up for days
A7                D        D7M       D6     D7M  
     Why, oh why do I roam
                D
It's not that I don't love her
                           G
And the Lord knows that I do
        C              G
But the changes in the city
              D
Made fool of me
            C
I got too free
                    G
Forgot I had a fair ??


Interlude (intro riff:

Em        A        D    D7M      D6    D7M   (x2


Verse:
 (no chord)               Em
I've been traveling over miles
A7                    D          D7M         D6      D7M  
     And I don't want to go home
                     Em
And I stayed up for days
A7                D        D7M       D6     D7M  
     Why, oh why do I roam
                D
It's not that I don't love her
                           G
And the Lord knows that I do
        C              G
But the changes in the city
              D
Made fool of me
            C
I got too free
                    G
Forgot I had a fair ??


Outro (fade out with intro riff:

Em        A        D    D7M      D6    D7M  

Добавлено: 10.07.2015
Другие материалы по этой песне:
  • Аккорды и текст

Страница создана 10.07.2015
http://primanota.ru/doug-sahm/i-dont-want-to-go-home-chords.htm
Привет, Гость.
Предлагаем пройти революционный курс по гитаре.
Подарок от PrimaNota.Ru, забирай!