PrimaNota.ru - самый крупный в мире бесплатный архив песенных текстов, аккордов, табулатур и нот


Doug Paisley - No One But You - таба, видео

Регистрация Запомнить меня
Войти через:  Facebook Google Twitter Vk Yandex Mail.ru

Doug Paisley - No One But You - таба, видео

Печатать
Просмотров: 117
NO ONE BUT YOU - DOUG PAISLEY
Tabbed by Barry Miles

Intro:
                     Em        C          G            D
e|------------------------------------------------------------------|
B|-----------------0---------0------------0----0--------------------|
G|-------------0h2-------0h2--------0h2p0----------2-0-2----2-0-2-0-|
D|---------0h2-------2---------2------------------------------------|
A|-----0h2----------------------------------------------------------|
E|-0h3--------------------------------------------------------------|

  Am            C          Dsus4
e|--------------------------------------0-------|
B|--------0-----------------------3--------3----|
G|-2--2-0---2p0--------0------------0--------0--|
D|--------------2--0h2-------4--------4---------|
A|------------------------/5----5---------------|
E|----------------------------------------------|

Verse:
              Em                     C
I've seen you stumble, I've seen you fall
              G                          D
I've seen you brought down, feathers and all
              Am                       C
Pick yourself up for the ones that you call
          Dsus4
Your best friends

I know you've been fighting what we can't see
Sometimes it takes many faces to be
It takes a time and a place to be free
Cause in the end

Chorus:
C                 D                     G
  Who would be so cruel to someone like you?
           C
No one but you
                   D                             G
Who would make the rules for the things that you do
           C         Dsus4
No one but you

Intro

Verse:
I woke up this morning, looked at the sky
I thought of all of the time passing by
It didn't matter how hard we had tried
Cause in the end

Chorus

Outro:
e|------------0-|
B|-----0-----0--|
G|-0h2------0---|
D|---------2----|
A|--------2-----|
E|-------0------|
Добавлено: 30.09.2013
Вам также может быть интересно:
Другие материалы по этой песне:
  • Аккорды и текст

Страница создана 30.09.2013
http://primanota.ru/doug-paisley/no-one-but-you-chords.htm
Привет, Гость.
Предлагаем пройти революционный курс по гитаре.
Подарок от PrimaNota.Ru, забирай!