PrimaNota.ru - самый крупный в мире бесплатный архив песенных текстов, аккордов, табулатур и нот


Doug Paisley - Come Here My Love - таба, видео

Регистрация Запомнить меня
Войти через:  Facebook Google Twitter Vk Yandex Mail.ru

Doug Paisley - Come Here My Love - таба, видео

Печатать
Просмотров: 160
COME HERE MY LOVE - DOUG PAISLEY
Tabbed by Barry Miles

Intro:
e|------------------------2--------------------------------2--------|
B|----------------3---------3----------------------2---------2------|
G|--------------2---2---------2------------------2---2---2-----2----|
D|-/4-2-0-----0-------0---------0-/4-2-0-2-4---4-------4------------|
A|--------2-0-----------0-------------------------------------------|
E|-------------------------------------------2----------------------|

e|------------------------------------0-----2----------2-------|
B|------------------0---------0---3--------2---2---------2-----|
G|--------------------0---2---------------2------2---2-----2---|
D|-/4-2-0---0h2---------2-----------2----2---------2-----------|
A|--------2-------2-------------2-------0----------------------|
E|--------------0-----------0----------------------------------|

Verse:
            D
Everyone is waiting
                F#m
For you to come outside
             Em      
Out into the sunlight
                          A6
Where there's no place to hide

And I can see the morning
Hear the engine's drone
Its sound is like a warning
That I've wandered off alone

Chorus:
Bm                      F#m
  Come here my love and love me
                Em
The lonely bell tolls
               Dsus4 (Fill 1)
High above the trees

Fill 1
e|-----------------------------|
B|-----------------------------|
G|-------0------0------0-------|
D|---4------4------4------4----|
A|-5---5------5------5------5--|
E|-----------------------------|

Bm                      F#m
  Come here my love and love me
                Em
The single side views
                Dsus4 (Fill 2)
The skin of the sea

Fill 2
e|-----------------------------|
B|---------------------0--3----|
G|-------0------2--------------|
D|---4------4------4-----------|
A|-5---5------5------5---------|
E|-----------------------------|

C                    G
  And go to sleep my love
          D6 (Fill 3)
Beside me

Fill 3:                                                   (to intro riff…)
e|-------2------2------2-------2------2-----2--------------------------------|
B|---0------0------0------0------0------0------0-----------------------------|
G|-----2------2------2------2------2------2------2---------------------------|
D|-0-------------------------------------------------/4-2-0------------------|
A|----------------------------------------------------------2-0-(..)---------|
E|---------------------------------------------------------------------------|

Intro Riff

Verse:
I found you in the hollow
I tracked you in the dell
Where all the light was swallowed
I drew you from the well

The thorn is deep inside me
Wrapped around the pain
I'm sleeping in the river
Dried out on the plain

Chorus

Intro

Verse:
Everyone is wounded
Everyone wears scars
Come take off your brave face
Show me who you are

There's footsteps in the ashes
Lead up towards the sky
And as the moment passes
Forgive me if I cry

Chorus
Добавлено: 14.10.2013
Другие материалы по этой песне:
  • Аккорды и текст

Страница создана 21.07.2013
http://primanota.ru/doug-paisley/come-here-my-love-chords.htm
Привет, Гость.
Предлагаем пройти революционный курс по гитаре.
Подарок от PrimaNota.Ru, забирай!