PrimaNota.ru - самый крупный в мире бесплатный архив песенных текстов, аккордов, табулатур и нот


Doug Martsch - Woke Up This Morning With My Mind On Jesus - таба, видео

Регистрация Запомнить меня
Войти через:  Facebook Google Twitter Vk Yandex Mail.ru

Doug Martsch - Woke Up This Morning With My Mind On Jesus - таба, видео

Печатать
Просмотров: 107
-------------------------------------------------------------------------------
        Woke Up This Morning With My Mind On Jesus- Doug Martsch
-------------------------------------------------------------------------------
Tabbed by: Jeff
Email:

Tuning: standard

e|---------------------------------------------------------------------------|
B|---------------------------------------------------------------------------|
G|----------------3-------------/7--5--3-------5p3--5p3--5p3--5b6p3-----3----|
D|--0--3----5--5-----5--3--5--------------5--------------------------5-----5-|
A|---------------------------------------------------------------------------|
E|---------------------------------------------------------------------------|

e|---------------------------------------------------------------------------|
B|---------------------------------------------------------------------------|
G|----------------3-2--0--2----3-2--0--2---3-2--0--2h3--0--------------------|
D|-/7--5---3-----------------------------------------------------------------|
A|------------5--------------------------------------------------------------|
E|---------------------------------------------------------------------------|

It's the blues, so just repeat that the whole song! very Neil Young-esque

| /  slide up
| \  slide down
| h  hammer-on
| p  pull-off
| ~  vibrato
| +  harmonic
| x  Mute note
===============================================================================
Добавлено: 25.05.2012
Вам также может быть интересно:
Другие материалы по этой песне:
  • Аккорды и текст

Страница создана 25.05.2012
http://primanota.ru/doug-martsch/woke-up-this-morning-with-my-mind-on-jesus-chords.htm
Привет, Гость.
Предлагаем пройти революционный курс по гитаре.
Подарок от PrimaNota.Ru, забирай!