PrimaNota.ru - самый крупный в мире бесплатный архив песенных текстов, аккордов, табулатур и нот


Doug Beach - Straight North - бас-таба, видео

Регистрация Запомнить меня
Войти через:  Facebook Google Twitter Vk Yandex Mail.ru

Doug Beach - Straight North - бас-таба, видео

Печатать
Просмотров: 112
-------------------------------------------------------------------------------
                          Straight North - Doug Beach
-------------------------------------------------------------------------------
Tabbed by: Sarah Becker


Tuning: Standard (E.A.D.G)

G|---------0~~~--------2~~~5~~~2~~~--------2~~~1~~~0~~~4~~~0~~~4~~~----------|
D|-----1~~~----4~~~1~~~------------0~~~3~~~----------------------------------|
A|-3~~~----------------------------------------------------------------------|
E|---------------------------------------------------------------------------|
   1 + 2 + 3 + 4 + 1 + 2 + 3 + 4 + 1 + 2 + 3 + 4 + 1 + 2 + 3 + 4 +

G|-5~~~3~~~0~~~--------5~3~5~3~0~3~~~~~1~~~0~~~------------------------------|
D|-------------1~3~~~~~--------------------------------4~~~3~~~--------------|
A|---------------------------------------------4~~~3~~~--------2~~~----------|
E|---------------------------------------------------------------------------|
   1 + 2 + 3 + 4 + 1 + 2 + 3 + 4 + 1 + 2 + 3 + 4 + 1 + 2 + 3 + 4 +

G|-------------1~~~----0~~~3~~~6~~~3~~~1~~~----------------------------------|
D|-----0~~~3~~~----1~~~--------------------3~~~0~~~--------0~~~3~~~----------|
A|-1~~~--------------------------------------------1~~~3~~~------------------|
E|---------------------------------------------------------------------------|
   1 + 2 + 3 + 4 + 1 + 2 + 3 + 4 + 1 + 2 + 3 + 4 + 1 + 2 + 3 + 4 +

G|-----0~~~3~~~0~~~------------0~~~3~~~1~~~----1~~~0~~~4~~~7~~~4~~~----------|
D|-1~~~------------1~~~----1~~~------------3~~~------------------------------|
A|---------------------4~~~--------------------------------------------------|
E|---------------------------------------------------------------------------|
   1 + 2 + 3 + 4 + 1 + 2 + 3 + 4 + 1 + 2 + 3 + 4 + 1 + 2 + 3 + 4 +

G|-5~~~2~~~0~~~--------2~~~----5~~~3~~~2~~~0~~~4~~~5~~~3~~~------------------|
D|-------------1~~~3~~~----3~~~----------------------------3~~~--------------|
A|-------------------------------------------------------------3~~~----------|
E|---------------------------------------------------------------------------|
   1 + 2 + 3 + 4 + 1 + 2 + 3 + 4 + 1 + 2 + 3 + 4 + 1 + 2 + 3 + 4 +

G|-------------1~~~----0~~~3~~~6~~~3~~~1~~~----------------------------------|
D|-----0~~~3~~~----1~~~--------------------3~~~0~~~--------0~~~3~~~----------|
A|-1~~~--------------------------------------------1~~~3~~~------------------|
E|---------------------------------------------------------------------------|
   1 + 2 + 3 + 4 + 1 + 2 + 3 + 4 + 1 + 2 + 3 + 4 + 1 + 2 + 3 + 4 +

G|-----0~~~3~~~0~~~------------0~~~3~~~1~~~----1~~~0~~~4~~~7~~~4~~~----------|
D|-1~~~------------1~~~----1~~~------------3~~~------------------------------|
A|---------------------4~~~--------------------------------------------------|
E|---------------------------------------------------------------------------|
   1 + 2 + 3 + 4 + 1 + 2 + 3 + 4 + 1 + 2 + 3 + 4 + 1 + 2 + 3 + 4 +

G|-5~~~2~~~0~~~--------2~~~----5~~~3~~~2~~~0~~~4~~~5~~~3~~~------------------|
D|-------------1~~~3~~~----3~~~----------------------------3~~~--------------|
A|-------------------------------------------------------------3~~~----------|
E|---------------------------------------------------------------------------|
   1 + 2 + 3 + 4 + 1 + 2 + 3 + 4 + 1 + 2 + 3 + 4 + 1 + 2 + 3 + 4 +

G|-3~~~2~~~0~~~4~~~5~~~3~~~--------------------------------------------------|
D|-------------------------3~~~----------------0~1~--------------------------|
A|-----------------------------3~~~1~~~------------------------0~~~----------|
E|---------------------------------------------------------------------------|
   1 + 2 + 3 + 4 + 1 + 2 + 3 + 4 + 1 + 2 + 3 + 4 + 1 + 2 + 3 + 4 +

G|---------------------------------------------------------------------------|
D|-------------------------3~~~3~1~------------0~1~--------------------------|
A|-1~~~----------------1~~~------------------------------------0~~~----------|
E|---------------------------------------------------------------------------|
   1 + 2 + 3 + 4 + 1 + 2 + 3 + 4 + 1 + 2 + 3 + 4 + 1 + 2 + 3 + 4 +

G|---------------0~~~~~0~~~----4~~~5~~~3~~~0~~~----------------0~3~----------|
D|-------------3~----------3~~~----------------1~~~3~~~1~~~------------------|
A|-1~~~----------------------------------------------------4~~~--------------|
E|---------------------------------------------------------------------------|
   1 + 2 + 3 + 4 + 1 + 2 + 3 + 4 + 1 + 2 + 3 + 4 + 1 + 2 + 3 + 4 +

G|---------------------------------------------1~~~----0~~~3~~~5~~~----------|
D|-------------------------------------0~~~3~~~----1~~~----------------------|
A|---------------------------------1~~~--------------------------------------|
E|---------------------------------------------------------------------------|
   1 + 2 + 3 + 4 + 1 + 2 + 3 + 4 + 1 + 2 + 3 + 4 + 1 + 2 + 3 + 4 +

G|-3~~~1~~~----------------------------0~~~3~~~0~~~------------0~~~----------|
D|---------3~~~0~~~--------0~~~3~~~1~~~------------1~~~----1~~~--------------|
A|-----------------1~~~3~~~----------------------------4~~~------------------|
E|---------------------------------------------------------------------------|
   1 + 2 + 3 + 4 + 1 + 2 + 3 + 4 + 1 + 2 + 3 + 4 + 1 + 2 + 3 + 4 +

G|-3~~~1~~~3~~~----0~~~----0~~~4~~~5~~~3~~~0~~~--------2~~~5~~~2~~~----------|
D|-------------3~~~----3~~~--------------------1~~~3~~~----------------------|
A|---------------------------------------------------------------------------|
E|---------------------------------------------------------------------------|
   1 + 2 + 3 + 4 + 1 + 2 + 3 + 4 + 1 + 2 + 3 + 4 + 1 + 2 + 3 + 4 +

G|-3~~~1~~~0~~~--------------------------------1~~~----0~~~3~~~5~~~----------|
D|-------------1~~~----1~~~3~~~--------0~~~3~~~----1~~~----------------------|
A|-----------------3~~~--------1~~~1~~~--------------------------------------|
E|---------------------------------------------------------------------------|
   1 + 2 + 3 + 4 + 1 + 2 + 3 + 4 + 1 + 2 + 3 + 4 + 1 + 2 + 3 + 4 +

G|-3~~~1~~~----------------------------0~~~3~~~0~~~------------0~~~----------|
D|---------3~~~0~~~--------0~~~3~~~1~~~------------1~~~----1~~~--------------|
A|-----------------1~~~3~~~----------------------------4~~~------------------|
E|---------------------------------------------------------------------------|
   1 + 2 + 3 + 4 + 1 + 2 + 3 + 4 + 1 + 2 + 3 + 4 + 1 + 2 + 3 + 4 +

G|-3~~~1~~~3~~~----0~~~----0~~~4~~~5~~~3~~~0~~~--------2~~~5~~~2~~~----------|
D|-------------3~~~----3~~~--------------------1~~~3~~~----------------------|
A|---------------------------------------------------------------------------|
E|---------------------------------------------------------------------------|
   1 + 2 + 3 + 4 + 1 + 2 + 3 + 4 + 1 + 2 + 3 + 4 + 1 + 2 + 3 + 4 +

G|-3~~~1~~~0~~~----------------------------------------0~~~3~~~6~~~----------|
D|-------------1~~~----1~~~3~~~--------0~~~3~~~2~~~1~~~----------------------|
A|-----------------3~~~--------1~~~1~~~--------------------------------------|
E|---------------------------------------------------------------------------|
   1 + 2 + 3 + 4 + 1 + 2 + 3 + 4 + 1 + 2 + 3 + 4 + 1 + 2 + 3 + 4 +

G|-3~~~1~~~--------------------1~~~----0~~~3~~~0~~~------------0~~~----------|
D|---------3~~~0~~~----0~~~3~~~----1~~~------------1~~~----1~~~--------------|
A|-----------------1~~~--------------------------------4~~~------------------|
E|---------------------------------------------------------------------------|
   1 + 2 + 3 + 4 + 1 + 2 + 3 + 4 + 1 + 2 + 3 + 4 + 1 + 2 + 3 + 4 +

G|-3~~~1~~~3~~~----0~~~--------0~~~--------0~~~3~~~----2~~~5~~~--------------|
D|-------------3~~~----3~~~1~~~--------1~~~--------3~~~--------3~~~----------|
A|---------------------------------3~~~--------------------------------------|
E|---------------------------------------------------------------------------|
   1 + 2 + 3 + 4 + 1 + 2 + 3 + 4 + 1 + 2 + 3 + 4 + 1 + 2 + 3 + 4 +

G|-3~~~1~~~0~~~4~~~5~~~3~~~----------------------------0~~~3~~~2~~~----------|
D|-------------------------3~~~--------0~~~3~~~0~~~1~~~----------------------|
A|-----------------------------3~~~1~~~--------------------------------------|
E|---------------------------------------------------------------------------|
   1 + 2 + 3 + 4 + 1 + 2 + 3 + 4 + 1 + 2 + 3 + 4 + 1 + 2 + 3 + 4 +

G|-3~~~1~~~----------------------------0~~~3~~~0~~~------------2~~~----------|
D|---------3~~~0~~~----0~~~3~~~0~~~1~~~------------1~~~----1~~~--------------|
A|-----------------1~~~--------------------------------4~~~------------------|
E|---------------------------------------------------------------------------|
   1 + 2 + 3 + 4 + 1 + 2 + 3 + 4 + 1 + 2 + 3 + 4 + 1 + 2 + 3 + 4 +

G|-3~~~1~~~----1~~~0~~~4~~~7~~~0~~~--------0~~~--------2~~~5~~~2~~~----------|
D|---------3~~~------------------------1~~~----4~~~3~~~----------------------|
A|---------------------------------3~~~--------------------------------------|
E|---------------------------------------------------------------------------|
   1 + 2 + 3 + 4 + 1 + 2 + 3 + 4 + 1 + 2 + 3 + 4 + 1 + 2 + 3 + 4 +

G|---------2~~~1~~~0~~~4~~~0~~~4~~~5~~~3~~~0~~~--------5~3~5~3~0~3~----------|
D|-0~~~3~~~------------------------------------1~3~~~~~----------------------|
A|---------------------------------------------------------------------------|
E|---------------------------------------------------------------------------|
   1 + 2 + 3 + 4 + 1 + 2 + 3 + 4 + 1 + 2 + 3 + 4 + 1 + 2 + 3 + 4 +

G|------------------------------------|
D|------------------------------------|
A|-----------------------------1~~~---|
E|------------------------------------|
   1 + 2 + 3 + 4 + 1 + 2 + 3 + 4 + 


| /  slide up
| \  slide down
| h  hammer-on
| p  pull-off
| ~  vibrato
| +  harmonic
| x  Mute note
===============================================================================
Добавлено: 15.08.2015
Другие материалы по этой песне:
  • Аккорды и текст

Страница создана 15.08.2015
http://primanota.ru/doug-beach/straight-north-chords.htm
Привет, Гость.
Предлагаем пройти революционный курс по гитаре.
Подарок от PrimaNota.Ru, забирай!