PrimaNota.ru - самый крупный в мире бесплатный архив песенных текстов, аккордов, табулатур и нот


Doucette - Mama Let Him Play - таба, видео

Регистрация Запомнить меня
Войти через:  Facebook Google Twitter Vk Yandex Mail.ru

Doucette - Mama Let Him Play - таба, видео

Печатать
Просмотров: 96
Mama Let Him Play
Doucett
Transcribed by: Allan di Dio
ìAll my own workî
allan-jennifer@home.com

Solo Technique
Basic - Beginning Run



  v    v    v    v    v    v    v    v
--------------------------------------------|
--------------------------------------------|
-------2----2---------2--------------2------|
--2-4h---4h---4h-2-4h---4h-2-4h-2-4h---4h---|    X2
--------------------------------------------|
--------------------------------------------|


  v    v    v    v    v    v    v    v
--------------------------------------------|
--------------------------------------------|
-------0----0---------0--------------0------|
--2-4h---4h---4h-2-4h---4h-2-4h-2-4h---4h---|    X2
--------------------------------------------|
--------------------------------------------|


  v    v    v    v    v    v    v    v
--------------------------------------------|
--------------------------------------------|
-------2----2---------2-3h-2---------2------|
--2-4h---4h---4h-2-4h--------4h-2-4h---4h---|    X2
--------------------------------------------|
--------------------------------------------|




Continues from this point with minor/less
complex variations. (Up the neck).
Timing remains basically the same 1/16th notes
with a slight triplet emphasis.
This should give most guitar players
a start point to continue on through the solo.
In time, I may attempt to transcribe the rest
as I work through it.  Itís a tough one to get perfect.

     
Добавлено: 21.06.2013
Другие материалы по этой песне:
  • Аккорды и текст

Страница создана 21.06.2013
http://primanota.ru/doucette/mama-let-him-play-chords.htm
Привет, Гость.
Предлагаем пройти революционный курс по гитаре.
Подарок от PrimaNota.Ru, забирай!