PrimaNota.ru - самый крупный в мире бесплатный архив песенных текстов, аккордов, табулатур и нот


Double Dagger - No Allies - аккорды и текст, видео

Регистрация Запомнить меня
Войти через:  Facebook Google Twitter Vk Yandex Mail.ru

Double Dagger - No Allies - аккорды и текст, видео

Печатать
Просмотров: 171
Уроки эстрадного вокала в Санкт-Петербурге
No Allies
Double Dagger
-------------------------------------------------------------------------------
                             No Allies - Double Dagger
-------------------------------------------------------------------------------

Tuning: Standard

In reality this song is played with a bass

Chords:
    C  D  F  G
e|--8--5--1--3-------|
B|--8--7--1--3-------|
G|--9--7--2--4-------|
D|--10-7--3--5-------|
A|--10-5--3--5-------|
E|--8--5--1--3-------|

e|---------------------------------------------------------------------------|
B|---------------------------------------------------------------------------|
G|---------------------------------------------------------------------------|
D|---------------------------------------------------------------------------|
A|--15-15-15-151515--15-15-15-151515-----------------------------------------|  4x
E|---------------------------------------------------------------------------|

e|---------------------------------------------------------------------------|
B|---------------------------------------------------------------------------|
G|---------------------------------------------------------------------------|
D|---------------------------------------------------------------------------|
A|-8-8-8-888--7-7-7-777--3-3-3-333--3-3-3-333--3-3-3-333--3-3-3-333----------|
E|---------------------------------------------------------------------------|

C
No allies! No allies!
Dont need you on our side
Nepotism is our party line
This incest suits me just fine

D           F
No thanks, do't need any of your favors
C
and Im sorry we don't play this months flavor
But don't mistake this for sour grapes
D                 F                  C
just tired of you lying to my face


How about you give us something new
D         F
How about you just give us the truth
C
you only care about you and you and you and you and you.

D F G

e|---------------------------------------------------------------------------|
B|---------------------------------------------------------------------------|
G|---------------------------------------------------------------------------|
D|---------------------------------------------------------------------------|
A|----15-15-151515-14-14-15-----15-15-151515-14-15-19------------------------|  4x
E|-8-------------------------8-----------------------------------------------|

Im dying to take you on an expiration date
Im dying to play all those songs you hate
And you can tell me all about the view from the top
Then tell me about the view when it stopped

And all those people whose calls you never got
Hows it gonna sound when they dont pick up
Ring ring ring, Its your death knell
If you keep on burning bridges, time will tell

C
No allies! No allies!
Dont need you on our side
D             F
Nepotism is our party line
C
This incest suits me just fine


No allies! No allies!
D             F
Dont need you on our side
C
Nepotism is our party line
This incest suits me just fine

D F

C
No allies! No allies!
Dont need you on our side

D F G

e|---------------------------------------------------------------------------|
B|---------------------------------------------------------------------------|
G|---------------------------------------------------------------------------|
D|---------------------------------------------------------------------------|
A|--15-15-15-151515--15-15-15-151515-----------------------------------------|  4x
E|---------------------------------------------------------------------------|

One day youll be the one whos gotten old
And youll be all alone left out in the cold
Then youll know what its like to be left with

C
No Allies!
Добавлено: 28.07.2015
Другие материалы по этой песне:
  • Аккорды и текст

Страница создана 28.07.2015
http://primanota.ru/double-dagger/no-allies-chords.htm
Привет, Гость.
Предлагаем пройти революционный курс по гитаре.
Подарок от PrimaNota.Ru, забирай!