PrimaNota.ru - самый крупный в мире бесплатный архив песенных текстов, аккордов, табулатур и нот


Dot Hacker - Quotes - таба, видео

Регистрация Запомнить меня
Войти через:  Facebook Google Twitter Vk Yandex Mail.ru

Dot Hacker - Quotes - таба, видео

Печатать
Просмотров: 214
Уроки эстрадного вокала в Санкт-Петербурге
-------------------------------------------------------------------------------
                             QUOTES - Dot Hacker
-------------------------------------------------------------------------------
Tabbed by: mikedapike
E-mail: mike_da_pike@gmx.de

Tuning: Standard

Ok, here is my second Dot Hacker tab. I think these guys are the saviors of modern band
music. Spread the word about this band.

Concerning this song: Especially for the main riff, I think one should play the bass
notes with the thumb of the left hand. It is really easier and I think Dot Hacker
themselves play it this way. All in all, there are mostly arpeggiated chords in this 
song, so it is  a matter of  placing the fingers of the left hand.

The second guitar is written down in the parts I thought of as necessary, so don't 
get too confused by Guitar II appearing, disappearing and reappearing again.^^

Enjoy and post comments for corrections!


Main Riff I (0:05)

e|--------------------------------------------------|
B|-----------9-----------9-----------9-----------7--|
G|--------8-----------8-----------8-----------8-----|
D|-----8-----------8-----------8-----------8--------|
A|--------------------------------------------------|
E|--7-----------7-----------6-----------6-----------|


Variation (0:50)

e|------------------------------------------------------|
B|------------10--9-----9---------------10--9-----9-----|
G|---------8---------8---------------9---------9-----9--|
D|------------------------------------------------------|
A|-----11------------------------12---------------------|
E|--8----------------------8--9-------------------------|

or alternative fingering (I like the second one better):

e|----------------------------------------------------|
B|-----------10--9-----9--------------10--9-----9-----|
G|--------8---------8--------------9---------9-----9--|
D|-----6------------------------7---------------------|
A|----------------------------------------------------|
E|--8---------------------8--9------------------------|


Kind-of-Verse I (0:56)

e|---------------------------------------------------------0---|---------|
B|----------9-----------9---------7--------7-----------------4-|-------0-|
G|-------8-----------8----------8--------8----------4----6-----|-----1---|
D|----6-----------6-----------8------8-8----------6------------|---2-----|
A|-------------------------6--------------------6------6-------|---------|
E|--8-----------7-----------------------------4----------------|-0-------|

- Main Riff I played by Guitar I while Guitar II plays:

Main Riff II (1:08)

e|------------------------|
B|------------------------|
G|------------------------|
D|------------------------|
A|------------------------|
E|--6-7-6-4-2---/7-----6--|

- Variation

Kind-of-Verse II [like Kind-of-Verse I with Variation on the last chord and some more
chords following]

e|--------0------------------------------0----|
B|----------0-----------------4--------0---0--|
G|------1------------8------6--------1--------|
D|----2------------9------5--------2----------|
A|---------------9----------------------------|
E|--0----------7--------6--------0------------|

- Main Riff I + II
- Variation
- Kind-of-Verse II


Spheric Part (2:39)

Guitar I                              Guitar II
e|------14----14--------14----14--|   e|---------------|
B|--12-----12----12-11-----11-----|   B|---------------|
G|--------------------------------|   G|---------------|
D|--------------------------------|   D|---------------|
A|--------------------------------|   A|---------------|
E|--------------------------------|   E|--2--let-ring--|

Guitar I repeated a few times and still playing while Guitar II changes to:

e|------------------------------------------------------------------------|
B|------------------------------------------------------------------------|
G|------------------------------------------------------------------------|
D|------------------------------------------------------------------------|
A|------------------------------------------------------------------------|
E|--2/7----6--6-7-6-4-2/7---(9)-6--6-7-6-4-2/7---9-6--6-7-6--9/11--7-9--6-|


Spheric Part with drums (3:15)

Guitar I
e|--------------------------------------|
B|--------7--------7--------7--------7--|
G|------8--------8--------8--------8----|
D|----8--------8--------8--------8------|
A|--------------------------------------|
E|--7--------7--------6--------6--------| 4 times

Guitar II
e|------------------------|                 e|----------------|
B|------------------------|                 B|----------------|
G|------------------------|                 G|----------------|
D|------------------------|                 D|----------------|
A|------------------------|                 A|----------------|
E|---6-7-6-4-2---7--9--6--| 4 times, then   E|--6-7-6-9-(11)--|


3:39-Part (3:39)

I can't really hear how the first two chords are arpeggiated, think of something on your own^^

e|-----------------0-------------0------------------0------------0---0--|
B|--7----------------4---------0---0---------------------------0---0----|
G|--8-----8------6-----------1-------------8----------8------1----------|
D|--8-----9----------------2-----------------9----8--------2------------|
A|--6-----9----6-------------------------9------------------------------|
E|--------7--------------0-------------7--------6--------0--------------|


Distorted Prelude (3:54)

The strum pattern is on you
e|--------------------------|
B|--------4-----------------|
G|--------6-----------------|
D|--4-----5-----6-----2-----|
A|--4-----x-----6-----2-----|
E|--2-----6-----4-----0-----|


Clean Interlude (4:03)

e|--------------------------------|
B|--------------0-----------------|
G|--8-----4-----1-----8-----4-----|
D|--9-----6-----2-----9-----6-----|
A|--9-----6-----2-----9-----6-----|
E|--7-----4-----0-----7-----4-----|


Distorted Again (4:13)

e|-----------------------|
B|-----------------------|
G|--------------------3--|
D|--2-----9-----6-----2--|
A|--2-----9-----6-----2--|
E|--0-----7-----4-----0--|

- Main Riff I (2 times)


Last Variation (4:37)

e|--------------------------------------------------|
B|-----------9-----------9-----------9-----------0--|
G|--------8-----------8-----------8-----------8-----|
D|-----8-----------8-----------8-----------8--------|
A|--------------------------------------------------|
E|--7-----------7-----------6-----------6-----------|

e|--------------------------------------------------|
B|-----------0-----------0-----------0-----------0--|
G|--------8-----------8-----------8-----------8-----|
D|-----8-----------8-----------8-----------8--------|
A|--------------------------------------------------|
E|--7-----------7-----------7-----------7-----------|

e|--------------------------------------------------|
B|-----------0-----------0-----------0-----------0--|
G|--------8-----------8-----------8-----------8-----|
D|-----8-----------8-----------8-----------8--------|
A|--------------------------------------------------|
E|--7-----------7-----------7-----------7-----------|

************************************

| /   slide up
| \   slide down
| h   hammer-on
| p   pull-off
| ~   vibrato
| +   harmonic
| x   Mute note
| b   Bend
| pb  Pre-bend
| br  Bend release
| pbr Pre-bend release
| brb Bend release bend

************************************
Добавлено: 27.09.2013
Другие материалы по этой песне:
  • Аккорды и текст

Страница создана 16.08.2013
http://primanota.ru/dot-hacker/quotes-chords.htm
Привет, Гость.
Предлагаем пройти революционный курс по гитаре.
Подарок от PrimaNota.Ru, забирай!