PrimaNota.ru - самый крупный в мире бесплатный архив песенных текстов, аккордов, табулатур и нот


Dot Hacker - Be Leaving - таба, видео

Регистрация Запомнить меня
Войти через:  Facebook Google Twitter Vk Yandex Mail.ru

Dot Hacker - Be Leaving - таба, видео

Печатать
Просмотров: 180
Dot Hacker-Be Leaving

Another awesome song from Dot Hacker.

Intro:

e|------------------------------------------------------|
B|------------------------------------------------------|
G|------------------------------------------------------|
D|------------------------------------------------------|
A|------------------------------------------------------|
E|-1/8--8-8-8--3--3--3-3-3--1/8--8--8-8-10/6--6--6-6-6--|

|-------------------------------------------------|
|-------------------------------------------------|
|-------------------------------------------------|
|-------------------------------------------------|
|-------------------------------------------------|
|-1/8--8--8-8-8--6--6--6-6-6--1-3/8--8-8-8-10/6~--|

Verse:

|-------------------------------|
|-------------------------------|
|-------------------------------|x2
|-------------------------------|
|---10---10---------10---10-----|
|-8----8----8~----8----8----8~--|

|---------------------------------|
|---------------------------------|
|---------------------------------|x2
|------810--------------810-------|
|---10-----10--------10-----10----|
|-8-----------8----8-----------8--|

|-------------------------------|
|-------------------------------|
|-------------------------------|
|-------------------------------|
|---10---10----------10---------|
|-8----8----8~-----8----8~------|

|----------------------------------------|
|----------------------------------------|
|----------------------------------------|
|----------------------------------------|
|---10---10---------10---10---10---10----|
|-8----8----8~----8----8----8----8----8~-|

Pre-chorus(goes something like this):

|--xx8x---x8x---x8x---x8x---x8x---------------|
|--xx8x---x8x---x8x---x8x---x8x---------------|
|--xx9x---x9x---x9x---x9x---x9x---------------|x4
|-xx10x--x10x--x10x--x10x--x10x--10-10-10-10--|
|--------------------------------10-10-10-10--|
|--------------------------------8--8--8--8---|

Chorus:

|-666666666666-66--333333333333-33--444444444444-44--333333333333-33--|
|-777777777777-77--333333333333-33--666666666666-66--555555555555-55--|
|-888888888888-88--333333333333-33--666666666666-66--555555555555-55--|
|-888888888888-88--555555555555-55--666666666666-66--555555555555-55--|
|-666666666666-66--555555555555-55--444444444444-44--333333333333-33--|
|------------------333333333333-33------------------------------------|

|-666666666666-66--333333333333-33--444444444444-44--333333333333-33--|
|-777777777777-77--333333333333-33--666666666666-66--333333333333-33--|
|-888888888888-88--333333333333-33--666666666666-66--333333333333-33--|
|-888888888888-88--555555555555-55--666666666666-66--555555555555-55--|
|-666666666666-66--555555555555-55--444444444444-44--555555555555-55--|
|------------------333333333333-33-------------------333333333333-33--|

|-333333333333-33--333333333333-33--333333333333-33--|
|-333333333333-33--333333333333-33--333333333333-33--|
|-333333333333-33--333333333333-33--333333333333-33--|
|-555555555555-55--555555555555-55--555555555555-55--|
|-555555555555-55--555555555555-55--555555555555-55--|
|-333333333333-33--333333333333-33--333333333333-33--|

|-6666666666666666666666666666666666666666666666666666666666--|
|-7777777777777777777777777777777777777777777777777777777777--|
|-8888888888888888888888888888888888888888888888888888888888--|
|-8888888888888888888888888888888888888888888888888888888888--|
|-6666666666666666666666666666666666666666666666666666666666--|
|-------------------------------------------------------------|

Back to verse:

First there's only the bass.but then comes the intro.

|----------------------------------------------------------|
|----------------------------------------------------------|
|----------------------------------------------------------|
|----------------------------------------------------------|
|----------------------------------------------------------|
|-x-1-1/8--8-8-8--3--3--3-3-3--1/8--8--8-8-10/6--6--6-6-6--|

Then:

|-------------------------------|
|-------------------------------|
|-------------------------------|
|-------------------------------|
|---10---10---------10---10-----|
|-8----8----8~----8----8----8~--|

Then there is an improvisation around C major chord.

Then:

|------------------------------|
|------------------------------|
|------------------------------|x4
|--------------8-10-8----------|
|-------6-8-10--------10-8-10--|
|-6h8-8------------------------|

Chorus again:

|-666666666666-66--333333333333-33--444444444444-44--333333333333-33--|
|-777777777777-77--333333333333-33--666666666666-66--555555555555-55--|
|-888888888888-88--333333333333-33--666666666666-66--555555555555-55--|
|-888888888888-88--555555555555-55--666666666666-66--555555555555-55--|
|-666666666666-66--555555555555-55--444444444444-44--333333333333-33--|
|------------------333333333333-33------------------------------------|

|-666666666666-66--333333333333-33--444444444444-44--333333333333-33--|
|-777777777777-77--333333333333-33--666666666666-66--555555555555-55--|
|-888888888888-88--333333333333-33--666666666666-66--555555555555-55--|
|-888888888888-88--555555555555-55--666666666666-66--555555555555-55--|
|-666666666666-66--555555555555-55--444444444444-44--333333333333-33--|
|------------------333333333333-33------------------------------------|

|-666666666666-66--333333333333-33--444444444444-44--333333333333-33--|
|-777777777777-77--333333333333-33--666666666666-66--333333333333-33--|
|-888888888888-88--333333333333-33--666666666666-66--333333333333-33--|
|-888888888888-88--555555555555-55--666666666666-66--555555555555-55--|
|-666666666666-66--555555555555-55--444444444444-44--555555555555-55--|
|------------------333333333333-33-------------------333333333333-33--|

|-333333333333-33--333333333333-33--333333333333-33--|
|-333333333333-33--333333333333-33--333333333333-33--|
|-333333333333-33--333333333333-33--333333333333-33--|
|-555555555555-55--555555555555-55--555555555555-55--|
|-555555555555-55--555555555555-55--555555555555-55--|
|-333333333333-33--333333333333-33--333333333333-33--|

|-6666666666666666666666666666666666666666666666666666666666--|
|-7777777777777777777777777777777777777777777777777777777777--|
|-8888888888888888888888888888888888888888888888888888888888--|
|-8888888888888888888888888888888888888888888888888888888888--|
|-6666666666666666666666666666666666666666666666666666666666--|
|-------------------------------------------------------------|

Then again improvisation with the C major chord.

Then:

|--------------------------------------------10----------------------|
|-8888888888888888*----88888888888888888*--------88888888888888888*--|
|--------------------------------------------------------------------|
|--------------------------------------------------------------------|
|--------------------------------------------------------------------|
|--------------------------------------------------------------------|

Then again with the improvisation.

End with the intro:

|------------------------------------------------------|
|------------------------------------------------------|
|------------------------------------------------------|
|------------------------------------------------------|
|------------------------------------------------------|
|-1/8--8-8-8--3--3--3-3-3--1/8--8--8-8-10/6--6--6-6-6--|

|-----------------------------------------------|
|-----------------------------------------------|
|-----------------------------------------------|
|-----------------------------------------------|
|-----------------------------------------------|
|-1/8--8--8-8-8--6--6--6-6-6--1-3/8--8-8-8-10~--|

End

With the improvisation just do whatever you like:variate,solo,
try alternate picking,etc.Sorry I didn't tab the improvisation,
it was hard hearing it in the background.
Not sure what I will tab out next,maybe In Love Dying from RHCP,
or maybe Hometown Gypsy,not sure.
Anyways,hope You find this useful,and don't forget to rate.:)
Добавлено: 22.10.2013
Другие материалы по этой песне:
  • Аккорды и текст

Страница создана 22.10.2013
http://primanota.ru/dot-hacker/be-leaving-chords.htm
Привет, Гость.
Предлагаем пройти революционный курс по гитаре.
Подарок от PrimaNota.Ru, забирай!