PrimaNota.ru - самый крупный в мире бесплатный архив песенных текстов, аккордов, табулатур и нот


Dorso - Chupacabras - таба, видео

Регистрация Запомнить меня
Войти через:  Facebook Google Twitter Vk Yandex Mail.ru

Dorso - Chupacabras - таба, видео

Печатать
Просмотров: 99
                           Chupacabras                   
                             
                            (Dorso)

Guitarra



      E  E  E  E  H           E  E  E  Q    E  E  E   
D#||-----------------------|-------------------------|
A#||-----------------------|-------------------------|
F#||-----------------------|-------------------------|
C#||-----------------------|-------------------------|
G#||--------5--4--L--------|--------5--4-------5--4--|
D#||--0--0--6--5--L--------|--0--0--6--5----0--6--5--|


  E  E  E  E  H           E  E  E  Q    E    Q      
-----------------------|---------------------------|
-----------------------|---------------------------|
-----------------------|---------------------------|
-----------------------|-------------------<>5~----|
--------5--4--L--------|--------5--4---------------|
--0--0--6--5--L--------|--0--0--6--5----0----------|


  E  E  E  E  H           E  E  E  Q    E  E  E   
-----------------------|-------------------------|
-----------------------|-------------------------|
-----------------------|-------------------------|
-----------------------|-------------------------|
--------5--4--L--------|--------5--4-------5--4--|
--0--0--6--5--L--------|--0--0--6--5----0--6--5--|


  E  E  E  E  H           E  E  E  Q    E    Q      
-----------------------|---------------------------|
-----------------------|---------------------------|
-----------------------|---------------------------|
-----------------------|-------------------<>5~----|
--------5--4--L--------|--------5--4---------------|
--0--0--6--5--L--------|--0--0--6--5----0----------|


    E  E  E  E  H           E  E  E  Q    E  E  E   
|------------------------|-------------------------|
|------------------------|-------------------------|
|*-----------------------|-------------------------|
|*-----------------------|-------------------------|
|---------5--4--L--------|--------5--4-------5--4--|
|---0--0--6--5--L--------|--0--0--6--5----0--6--5--|


  E  E  E  E  H           E  E  E  Q    E    Q        
-----------------------|----------------------------||
-----------------------|----------------------------||
-----------------------|---------------------------*||
-----------------------|-------------------<>5~----*||
--------5--4--L--------|--------5--4----------------||
--0--0--6--5--L--------|--0--0--6--5----0-----------||


                                   SH                 
  E  E  E  Q    E    Q        E    E  E  E  E  E  E   
---------------------------|-------------------------|
---------------------------|-------------------------|
---------------------------|-------------------------|
-------------------<>5~----|-------------5-----5-----|
--------5--4---------------|--0--<>2--0--5-----5-----|
--0--0--6--5----0----------|-------------3-----3-----|


  E  E  E  E  H           E  E  E  E  E  E  E  E   
-----------------------|--------------------------|
-----------------------|--------------------------|
-----------------------|--------------------------|
-----5-----8--7--------|-----5-----5--------------|
-----5-----8--7--------|-----5-----5--2-----2-----|
--0--3--0--6--5--------|--0--3--0--3--0-----0-----|


                                  SH                 
  E  E  E  E  H           E  E    E  E  E  E  E  E   
-----------------------|----------------------------|
-----------------------|----------------------------|
-----------------------|----------------------------|
-----5--5-----2--------|--L-------------5-----5-----|
-----5--5-----1--------|--L--0--<>2--0--5-----5-----|
--0--3--3--0--0--------|--L-------------3-----3-----|


  E  E  E  E  H           E  E  E  E  E  E  E  E   
-----------------------|--------------------------|
-----------------------|--------------------------|
-----------------------|--------------------------|
-----5-----8--7--------|-----5-----5--------------|
-----5-----8--7--------|-----5-----5--2-----2-----|
--0--3--0--6--5--------|--0--3--0--3--0-----0-----|


  E  E  E  E  H           S  E  S S S E  E  E  E  E   
-----------------------|-----------------------------|
-----------------------|-----------------------------|
-----------------------|-----------------------------|
-----5--5-----2--------|-----------------------------|
-----5--5-----1--------|--------8-L---8-----8-----8--|
--0--3--3--0--0--------|--1p-0--6-L---6-----6-----6--|


  S  E  S S S E  E  E  E  E     S  E  S S S E  E  E  E  E   
-----------------------------|-----------------------------|
-----------------------------|-----------------------------|
-----------------------------|-----------------------------|
-----------------------------|--------5-L---5-----5-----5--|
--------7-L---7-----7-----7--|--------2-L---2-----2-----2--|
--1p-0--5-L---5-----5-----5--|--1p-0--3-L---3-----3-----3--|


  S  E  S S S E  E  E  E  E     S  E  S S S E  E  E  E  E   
-----------------------------|-----------------------------|
-----------------------------|-----------------------------|
-----------------------------|-----------------------------|
-----------------------------|-----------------------------|
--------8-L---8-----8-----8--|--------8-L---8-----8-----8--|
--1p-0--6-L---6-----6-----6--|--1p-0--6-L---6-----6-----6--|


  S  E  S S S E  E  E  E  E     S  E  S S S E  E  E  E  E   
-----------------------------|-----------------------------|
-----------------------------|-----------------------------|
-----------------------------|-----------------------------|
-----------------------------|--------5-L---5-----5-----5--|
--------7-L---7-----7-----7--|--------2-L---2-----2-----2--|
--1p-0--5-L---5-----5-----5--|--1p-0--3-L---3-----3-----3--|


                                 ^                  
  S  E  S S S E  E  E  E  E      W                  
-----------------------------|---------------------|
-----------------------------|--(7)----------------|
-----------------------------|--(7)----------------|
-----------------------------|--(5)----------------|
--------8-L---8-----8-----8--|---------------------|
--1p-0--6-L---6-----6-----6--|---------------------|


                          ^                                       
  E.  E.  Q.     Q        W                     W                 
----------------------|----------------------|-------------------|
--7-------------------|--(7)-----------------|--L----------------|
------7---------------|--(7)-----------------|--L----------------|
----------5------L----|--(7)S----------------|--L----------------|
----------------------|----------------------|-------------------|
----------------------|----------------------|-------------------|


  H        E.  E.  E     H        E.  E.  E     H        E.  E.  E   
----------------------|----------------------|----------------------|
-----------3----------|-----------3----------|-------------------0--|
---------------4------|---------------4------|-----------0----------|
-------------------2--|-------------------2--|---------------4------|
--3-------------------|--0-------------------|----------------------|
----------------------|----------------------|--0-------------------|


  H.            Q          E  E  E  E  H         
----------------------||------------------------|
----------------------||------------------------|
--0-------------------||*-----------------------|
----------------------||*-----------------------|
----------------------||---------5--4--L--------|
---------------12\----||---0--0--6--5--L--------|


  E  E  E  Q    E  E  E     E  E  E  E  H         
-------------------------|-----------------------|
-------------------------|-----------------------|
-------------------------|-----------------------|
-------------------------|-----------------------|
--------5--4-------5--4--|--------5--4--L--------|
--0--0--6--5----0--6--5--|--0--0--6--5--L--------|


  E  E  E  Q    E    Q          E  E  E  Q    E    Q      
----------------------------||---------------------------|
----------------------------||---------------------------|
---------------------------*||---------------------------|
-------------------<>5~----*||-------------------<>5~----|
--------5--4----------------||--------5--4---------------|
--0--0--6--5----0-----------||--0--0--6--5----0----------|


       SH                                         
  E    E  E  E  E  E  E     E  E  E  E  H         
-------------------------|-----------------------|
-------------------------|-----------------------|
-------------------------|-----------------------|
-------------5-----5-----|-----5-----8--7--------|
--0--<>2--0--5-----5-----|-----5-----8--7--------|
-------------3-----3-----|--0--3--0--6--5--------|


  E  E  E  E  E  E  E  E     E  E  E  E  H         
--------------------------|-----------------------|
--------------------------|-----------------------|
--------------------------|-----------------------|
-----5-----5--------------|-----5--5-----2--------|
-----5-----5--2-----2-----|-----5--5-----1--------|
--0--3--0--3--0-----0-----|--0--3--3--0--0--------|


          SH                                         
  E  E    E  E  E  E  E  E     E  E  E  E  H         
----------------------------|-----------------------|
----------------------------|-----------------------|
----------------------------|-----------------------|
--L-------------5-----5-----|-----5-----8--7--------|
--L--0--<>2--0--5-----5-----|-----5-----8--7--------|
--L-------------3-----3-----|--0--3--0--6--5--------|


  E  E  E  E  E  E  E  E     E  E  E  E  H         
--------------------------|-----------------------|
--------------------------|-----------------------|
--------------------------|-----------------------|
-----5-----5--------------|-----5--5-----2--------|
-----5-----5--2-----2-----|-----5--5-----1--------|
--0--3--0--3--0-----0-----|--0--3--3--0--0--------|


  S  E  S S S E  E  E  E  E     S  E  S S S E  E  E  E  E   
-----------------------------|-----------------------------|
-----------------------------|-----------------------------|
-----------------------------|-----------------------------|
-----------------------------|-----------------------------|
--------8-L---8-----8-----8--|--------7-L---7-----7-----7--|
--1p-0--6-L---6-----6-----6--|--1p-0--5-L---5-----5-----5--|


  S  E  S S S E  E  E  E  E     S  E  S S S E  E  E  E  E   
-----------------------------|-----------------------------|
-----------------------------|-----------------------------|
-----------------------------|-----------------------------|
--------5-L---5-----5-----5--|-----------------------------|
--------2-L---2-----2-----2--|--------8-L---8-----8-----8--|
--1p-0--3-L---3-----3-----3--|--1p-0--6-L---6-----6-----6--|


  S  E  S S S E  E  E  E  E     S  E  S S S E  E  E  E  E   
-----------------------------|-----------------------------|
-----------------------------|-----------------------------|
-----------------------------|-----------------------------|
-----------------------------|-----------------------------|
--------8-L---8-----8-----8--|--------7-L---7-----7-----7--|
--1p-0--6-L---6-----6-----6--|--1p-0--5-L---5-----5-----5--|


  S  E  S S S E  E  E  E  E     S  E  S S S E  E  E  E  E   
-----------------------------|-----------------------------|
-----------------------------|-----------------------------|
-----------------------------|-----------------------------|
--------5-L---5-----5-----5--|-----------------------------|
--------2-L---2-----2-----2--|--------8-L---8-----8-----8--|
--1p-0--3-L---3-----3-----3--|--1p-0--6-L---6-----6-----6--|


   ^                                            ^                   
   W                    E.  E.  Q.     Q        W                   
---------------------|----------------------|----------------------|
--(7)----------------|--7-------------------|--(7)-----------------|
--(7)----------------|------7---------------|--(7)-----------------|
--(5)----------------|----------5------L----|--(7)S----------------|
---------------------|----------------------|----------------------|
---------------------|----------------------|----------------------|


  W                   H        E.  E.  E     H        E.  E.  E   
-------------------|----------------------|----------------------|
--L----------------|-----------3----------|-----------3----------|
--L----------------|---------------4------|---------------4------|
--L----------------|-------------------2--|-------------------2--|
-------------------|--3-------------------|--0-------------------|
-------------------|----------------------|----------------------|


  H          E.  E  S   E     W                  
---------------------------|--------------------|
--L------------------------|--------------------|
--L------------------------|--------------------|
--L--------------5----7g9--|--7~----------------|
-----------5g7-------------|--------------------|
--0------------------------|--------------------|


       PM PM    PM PM    PM    PM    PM PM                
    E  E  E  E  E  E  E  E     E  E  E  E  E  E  E  E     
|---------------------------|---------------------------||
|---------------------------|---------------------------||
|*--------------------------|--------------------------*||
|*--------------------------|--------------------------*||
|---5--------5--------5-----|-----5--------5--5--5------||
|---3--0--0--4--0--0--3--0--|--0--4--0--0--3--4--3--0---||


  PM    PM PM                     PM PM    PM PM    PM  
  E  E  E  E  E  E  E  E       E  E  E  E  E  E  E  E   
--------------------------||---------------------------|
--------------------------||---------------------------|
--------------------------||*--------------------------|
--------------------------||*--------------------------|
-----5--------5--5--5-----||---5--------5--------5-----|
--0--4--0--0--3--4--3--0--||---3--0--0--4--0--0--3--0--|


  PM    PM PM                  PM    PM PM              
  E  E  E  E  E  E  E  E       E  E  E  E  E  E  E  E   
---------------------------||--------------------------|
---------------------------||--------------------------|
--------------------------*||--------------------------|
--------------------------*||--------------------------|
-----5--------5--5--5------||-----5--------5--5--5-----|
--0--4--0--0--3--4--3--0---||--0--4--0--0--3--4--3--0--|


       PM PM    PM PM    PM    PM    PM PM                
    E  E  E  E  E  E  E  E     E  E  E  E  E  E  E  E     
|---------------------------|---------------------------||
|---------------------------|---------------------------||
|*--------------------------|--------------------------*||
|*--------------------------|--------------------------*||
|---5--------5--------5-----|-----5--------5--5--5------||
|---3--0--0--4--0--0--3--0--|--0--4--0--0--3--4--3--0---||


  PM    PM PM                     PM PM    PM PM    PM  
  E  E  E  E  E  E  E  E       E  E  E  E  E  E  E  E   
--------------------------||---------------------------|
--------------------------||---------------------------|
--------------------------||*--------------------------|
--------------------------||*--------------------------|
-----5--------5--5--5-----||---5--------5--------5-----|
--0--4--0--0--3--4--3--0--||---3--0--0--4--0--0--3--0--|


  PM    PM PM                  PM    PM PM              
  E  E  E  E  E  E  E  E       E  E  E  E  E  E  E  E   
---------------------------||--------------------------|
---------------------------||--------------------------|
--------------------------*||--------------------------|
--------------------------*||--------------------------|
-----5--------5--5--5------||-----5--------5--5--5-----|
--0--4--0--0--3--4--3--0---||--0--4--0--0--3--4--3--0--|


    E  E  H        E  E     E  E  H        E  E   
|------------------------|-----------------------|
|------------------------|-----------------------|
|*-----------------------|-----------------------|
|*-----------------------|-----------------------|
|---5--------------------|--5--------------------|
|---3--0--------------0--|--3--0--------------0--|


                           PM PM    PM PM         
  E  E  H.              E  E  E  E  E  E  Q       
---------------------|--------------------------||
---------------------|--------------------------||
---------------------|-------------------------*||
---------------------|--------------------7----*||
--5------------------|--5--------4--------5-----||
--3--0---------------|--3--0--0--5--0--0--------||


   E   E  E  E  E  E  E  E     E   E  E  E  E  E  E  E   
----------------------------|---------------------------|
----------------------------|---------------------------|
*------------4-----4--------|------------4-----4--------|
*------------5-----5--------|------------5-----5--------|
---5------------------------|--5------------------------|
---3p--0--0--------------0--|--3p--0--0--------------0--|


                                  PM PM    PM PM         
  E   E  E  E  E  E  E  E      E  E  E  E  E  E  Q       
----------------------------|--------------------------||
----------------------------|--------------------------||
------------4-----4---------|-------------------------*||
------------5-----5---------|--------------------7----*||
--5-------------------------|--5--------4--------5-----||
--3p--0--0--------------7\--|--3--0--0--5--0--0--------||


      PM PM    PM PM    PM    PM    PM PM                
   E  E  E  E  E  E  E  E     E  E  E  E  E  E  E  E   4x
---------------------------|---------------------------||
---------------------------|---------------------------||
*--------------------------|--------------------------*||
*--------------------------|--------------------------*||
---5--------5--------5-----|-----5--------5--5--5------||
---3--0--0--4--0--0--3--0--|--0--4--0--0--3--4--3--0---||


  PM    PM PM                                        
  E  E  E  E  E  E  E  E       E  E  H        E  E   
--------------------------||------------------------|
--------------------------||------------------------|
--------------------------||*-----------------------|
--------------------------||*-----------------------|
-----5--------5--5--5-----||---5--------------------|
--0--4--0--0--3--4--3--0--||---3--0--------------0--|


  E  E  H        E  E     E  E  H.            
-----------------------|---------------------|
-----------------------|---------------------|
-----------------------|---------------------|
-----------------------|---------------------|
--5--------------------|--5------------------|
--3--0--------------0--|--3--0---------------|


     PM PM    PM PM                                      
  E  E  E  E  E  E  Q          E   E  E  E  E  E  E  E   
--------------------------||----------------------------|
--------------------------||----------------------------|
-------------------------*||*------------4-----4--------|
--------------------7----*||*------------5-----5--------|
--5--------4--------5-----||---5------------------------|
--3--0--0--5--0--0--------||---3p--0--0--------------0--|


  E   E  E  E  E  E  E  E     E   E  E  E  E  E  E  E    
---------------------------|----------------------------|
---------------------------|----------------------------|
------------4-----4--------|------------4-----4---------|
------------5-----5--------|------------5-----5---------|
--5------------------------|--5-------------------------|
--3p--0--0--------------0--|--3p--0--0--------------7\--|


     PM PM    PM PM                                 
  E  E  E  E  E  E  Q          Q.     E  H          
--------------------------||-----------------------|
--------------------------||-----------------------|
-------------------------*||*----------------------|
--------------------7----*||*---------5--L/--------|
--5--------4--------5-----||---4------3--L/--------|
--3--0--0--5--0--0--------||---2-------------------|


  E  E  E  E  E  E  E  E     Q.     E  H          
--------------------------|----------------------|
--------------------------|----------------------|
--9-----9-----9-----9-----|----------------------|
--9-----9-----9-----9-----|---------5--L/--------|
--------------------------|--4------3--L/--------|
--------------------------|--2-------------------|


   E   E   E   E   Q     Q     4x   E  E  E  E  E  E   
--12----------12---------L-----||---------------------|
------12----------12----12-----||---------------------|
----------12------------------*||*--4--------4-----4--|
------------------------------*||*-----5--2-----------|
-------------------------------||---------------------|
-------------------------------||---------------------|


  E  E  E  E  E  E     E  E  E  E  E  E     E  E  E  E  E  E     
--------------------|--------------------|---------------------||
--------------------|--------------------|---------------------||
--------5-----5-----|--4--------4-----4--|--------3-----3-----*||
--5--2--------------|-----5--2-----------|--5--2--------------*||
--------------------|--------------------|---------------------||
--------------------|--------------------|---------------------||


   E  E  E  E  E  E     E  E  E  E  E  E     E  E  E  E  E  E   
---------------------|--------------------|--------------------|
---5--5-----5-----5--|--5-----5-----5-----|--5--5-----5-----5--|
*--4--4-----4-----4--|--4-----5-----5-----|--4--4-----4-----4--|
*--2--2-----2-----2--|--2-----2-----2-----|--2--2-----2-----2--|
---------------------|--------------------|--------------------|
---------------------|--------------------|--------------------|


  E  E  E  E  E  E        E  E  E  E  E  E  E  E   
---------------------||---------------------------|
--5-----5-----5------||---5--------5-----5--------|
--4-----3-----3-----*||*-----4--------------4-----|
--2-----2-----2-----*||*--------5--------------5--|
---------------------||---------------------------|
---------------------||---------------------------|


    SH      SH                                              
    E  E    E  E  E  E  E  E     E  E  E  E  E  E  E  E   4x
------------------------------|---------------------------||
--<>5-----<>5-----5--------5--|-----5--------6-----6------||
---------------------4--------|--------4-----------------*||
------------------------5-----|-----------5--------------*||
------------------------------|---------------------------||
------------------------------|---------------------------||


                                        PM PM           
  E  E  E  E  E  E  E  E       E  E  E  E  E  E  E  E   
--------------------------||---------------------------|
--5--------5-----5--------||---------------------------|
-----4--------------4-----||*--9--9--9--------9--9--9--|
--------5--------------5--||*--9--9--9--------9--9--9--|
--------------------------||---7--7--7--------7--7--7--|
--------------------------||------------0--0-----------|


  PM PM PM PM    PM    PM                            
  E  E  E  E  E  E  E  E        Q    Q    Q    Q     
---------------------------||-----------------------|
---------------------------||-----------------------|
--------------9-----9-----*||*----------------------|
--------------9-----9-----*||*----------------------|
--------------7-----7------||-------------5----4----|
--0--0--0--0-----0-----0---||---0----0----6----5----|


  E  E  E  E  H           Q    Q    Q    Q     
-----------------------|----------------------|
-----------------------|----------------------|
-----------------------|----------------------|
-----------------------|----------------------|
--L-----------4--------|------------5----4----|
--L--0-----0--5--------|--0----0----6----5----|


                 PM    PM                          
  E  E  E  E  E  E  E  E       H        H          
---------------------------||--------------------||
---------------------------||--------------------||
--------------9-----9-----*||--9-----------------||
--------------9-----9-----*||--9-----------------||
--L-----------7-----7------||--7-----------------||
--L--0-----0-----0-----0---||--------------------||




Duration Legend
---------------
W - whole
H - half
Q - quarter
E - 8th
S - 16th
T - 32nd
X - 64th
. - note dotted
|-n-|  - n-tuplets


Tablature Legend
----------------
L - tied note
x - dead note
g - grace note
(n) - ghost note
> - accentuded note
NH - natural harmonic
AH - artificial harmonic
TH - tapped harmonic
SH - semi harmonic
PH - pitch harmonic
h - hammer on
p - pull off
b - bend
br - bendRelease
pb - preBend
pbr - preBendRelease
brb - bendReleaseBend
\n/ - tremolo bar dip
\n - tremolo bar dive
-/n - tremolo bar Release up
/n\ - tremolo bar inverted dip
/n - tremolo bar return
-\n - tremolo bar Release down
S - shift slide
s - legato slide
/ -  slide into from below or out of upwards
\ -  slide into from above or out of downwards
~ - vibrato
W - wide vibrato
tr - trill
TP - tremolo picking
T - tapping
S - slap
P - pop
< - fade in
^ - brush up
v - brush down

Tab by Duraznito
Добавлено: 25.06.2012
Другие материалы по этой песне:
  • Аккорды и текст

Страница создана 25.06.2012
http://primanota.ru/dorso/chupacabras-chords.htm
Привет, Гость.
Предлагаем пройти революционный курс по гитаре.
Подарок от PrimaNota.Ru, забирай!