PrimaNota.ru - самый крупный в мире бесплатный архив песенных текстов, аккордов, табулатур и нот


Дороги Меняют Цвет (ДМЦ) - Зима - аккорды и текст, видео

Регистрация Запомнить меня
Войти через:  Facebook Google Twitter Vk Yandex Mail.ru

Дороги Меняют Цвет (ДМЦ) - Зима - аккорды и текст, видео

Печатать
Просмотров: 273
Зима
Дороги Меняют Цвет (ДМЦ)
E|---1--------------------------------------
B|---3----3-1-0------3--3--1-0----------
G|---2-----------2----------------2-------
D|---0--------------0----------------0----
A|------------------------------------------
E|------------------------------------------
 
E|---0------------------------------------
B|---1----1-0---------1--1--0-----------
G|---2---------2----2----------2---2----
D|---2------------2---------------2------
A|---0------------------------------------
E|-----------------------------------------

Am-----------Dm/F-----------------------------------
Зима, зима...То на свадьбу, то на поминки.
E-----------------Am--------------------E------------
Мне б хоть раз да по снегу промчаться голеньким.
Зима, зима... Кружит в платье подвенечном
Ночкой темной, тихой и бесконечной.

Припев:
Dm--------E-----Am--------F------------
Небо фатою белой меня накрыло,
Платьем в сугробах. Вьюга меня любила,
Стиснула да сдавила морозом рожу,
Так умирал в степи на меня похожий...

Зима, зима... Я же суженый твой простуженный.
Под венец встань со мною в замерзшей луже.
Зима, зима... Заморила бродягу голодом.
Я не ямщик, но поверь мне тоже холодно.

Припев:
Небо фатою белой меня накрыло, 
Платьем в сугробах. Вьюга меня любила,
Стиснула да сдавила морозом рожу, 
Так умирал в степи на меня похожий...
Добавлено: 13.02.2014
Другие материалы по этой песне:
  • Аккорды и текст

Страница создана 13.02.2014
http://primanota.ru/dorogi-menyayut-cvet-dmc/zima-chords.htm
Привет, Гость.
Предлагаем пройти революционный курс по гитаре.
Подарок от PrimaNota.Ru, забирай!