PrimaNota.ru - самый крупный в мире бесплатный архив песенных текстов, аккордов, табулатур и нот


Doro - Dark Fade - текст песни, таба, видео

Регистрация Запомнить меня
Войти через:  Facebook Google Twitter Vk Yandex Mail.ru

Doro - Dark Fade - текст песни, таба, видео

Печатать
Просмотров: 221
Уроки эстрадного вокала в Санкт-Петербурге
Song:      Dark Fade
Artist:    Doro/Warlock
Album:     Burning the witches
Tabbed by: Dirk Desmet
E-mail:    desmet_dirk@hotmail.com
Website:   http://www.tuinkabouters.be.tf
Date:      sunday, 29 December 2002


Main part:

e: |------------------------------------------------------------|
b: |------------------------------------------------------------|
g: |---------------------------------------------4-7------------|
d: |--10/9--------10/9--------10/9----12/9-----5-4-7------------|
a: |--8-/7--------8-/7--------8-/7----10/7-----5-2-5------------|
e: |-------000000------000000------00------00--3----------------|

Something in between:

e: |------------------------------------------------|
b: |------------------------------------------------|
g: |--5-5-7-7-7-7-----------------------------------|
d: |--5-5-7-7-7-7--7-9----12-7/9----5-4-------------|
a: |--3-3-5-5-5-5--5/7----10-5/7----3-2-------------|
e: |-------------------00--------00-----------------|

e: |-------|---------------------|------------------|
b: |-------|---------------------|------------------|
g: |-------|--------------------.|------------------|
d: |--5-4-.|-1~~-5---1-12----12-.|-1~~--5-7---------|
a: |--3-2-.|-0~~-5---1-10----10--|-0~~--3-5---------|
e: |-------|-----3---0----00-----|------------------|

Instrumental thing:

e: |----------------------------------|
b: |----------------------------------|
g: |---------------------------------.|
d: |--5-----4-----2-----4-----5---4--.|
a: |----0-0---0-0---0-0---0-0---0-----|
e: |----------------------------------|

e: |----------------------------------|
b: |----------------------------------|
g: |--3-----2-----0-----2-----3---2--.|
d: |----0-0---0-0---0-0---0-0---0----.|
a: |----------------------------------|
e: |----------------------------------|

e: |----------------------------------------|
b: |----------------------------------------|
g: |---------------5-5---7-7----------------|
d: |--1/12--1/12---5-5---7-7----10/9--------|
a: |--1/10--1/10---3-3---5-5----8-/7--------|
e: |--0-----0------------------------000000-|



     
Добавлено: 03.06.2013
Другие материалы по этой песне:
  • Аккорды и текст

Страница создана 03.06.2013
http://primanota.ru/doro/dark-fade-chords.htm
Привет, Гость.
Предлагаем пройти революционный курс по гитаре.
Подарок от PrimaNota.Ru, забирай!