PrimaNota.ru - самый крупный в мире бесплатный архив песенных текстов, аккордов, табулатур и нот


Doro Pesch - Legends Never Die - аккорды и текст, таба, видео

Регистрация Запомнить меня
Войти через:  Facebook Google Twitter Vk Yandex Mail.ru

Doro Pesch - Legends Never Die - аккорды и текст, таба, видео

Печатать
Просмотров: 331
Legends Never Die
Doro Pesch
-----------------------------------------
 Legends Never Die - Doro - Fight (2002)
-----------------------------------------

   Am  G  F  Dm A5 G5 F5
e|-----3--1--1-----------|
b|--1--3--1--3-----------|
g|--2--0--2--2-----------|
d|--2--0--3--0--7--5--3--|
a|--0--2--------7--5--3--|
E|-----3--------5--3--1--|

Verse:

Am G F G (Dm)

Chorus/Outro:

A5 G5 F5
Добавлено: 19.06.2012
Другие материалы по этой песне:
  • Аккорды и текст

Страница создана 19.06.2012
http://primanota.ru/doro-pesch/legends-never-die-chords.htm
Привет, Гость.
Предлагаем пройти революционный курс по гитаре.
Подарок от PrimaNota.Ru, забирай!