PrimaNota.ru - самый крупный в мире бесплатный архив песенных текстов, аккордов, табулатур и нот


Dorm Patrol - Wonderboy - таба, видео

Регистрация Запомнить меня
Войти через:  Facebook Google Twitter Vk Yandex Mail.ru

Dorm Patrol - Wonderboy - таба, видео

Печатать
Просмотров: 95
-------------------------------------------------------------------------------
                             WONDERBOY - Dorm Patrol
-------------------------------------------------------------------------------
Tabbed by: sajv4H       
E-mail: Danskfatol@live.com

Tuning: D-standard, DGCFAd

Intro figure 1

e|---------------------------------------------------------------------------|
B|---------------------------------------------------------------------------|
G|--------------------------------7-7-7-7-7-7-7------------------------------|
D|---------------------------------------------------------------------------|
A|--5-5-5-5-5-5-5-5-5-5-5-5-5-5-5-5-5-5-5-5-5-5------------------------------|
E|---------------------------------------------------------------------------|


Intro figure 2

Rhythm guitar:


e|---------------------------------------------------------------------------|
B|---------------------------------------------------------------------------|
G|---------------------------------------------------------------------------|
D|--7-7-7-7-7-7-4-4-4-4-4-4--------------------------------------------------|
A|--5-5-5-5-5-5-2-2-2-2-2-2-5-5-5-5-5-5-7-7-7-7-7-7--------------------------|
E|--------------------------3-3-3-3-3-3-5-5-5-5-5-5--------------------------|

Lead guitar:

e|---------------------------------------------------------------------------|
B|-----------------------------------------10-12-14-15-----------------------|
G|--7-6-9-7-5-7--7-6-9-7-6-7--7-6-9-7-6-7------------------------------------|
D|-----------------------------------------7--9--11-12--repeat x2------------|
A|---------------------------------------------------------------------------|
E|---------------------------------------------------------------------------|

Lead guitar harmony, 2nd loop of Intro figure 1

e|---------------------------------------------------------------------------|
B|--7-5-8-7-5-7--7-5-8-7-5-7--7-5-8-7-5-7--------5-7-------------------------|
G|-----------------------------------------6--7------------------------------|
D|---------------------------------------------------------------------------|
A|---------------------------------------------------------------------------|
E|---------------------------------------------------------------------------|


Verse 1
-I feel like wonderboy...

e|---------------------------------------------------------------------------|
B|---------------------------------------------------------------------------|
G|---------------------------------------------------------------------------|
D|--7----4----------------7-7-7-7-7-7-4-4-4-4-4-4----------------------------|
A|--5----2----5----7------5-5-5-5-5-5-2-2-2-2-2-2-5-5-5-5-5-5-7-7-7-7-7------|
E|------------3----5-hold-------------------------3-3-3-3-3-3-5-5-5-5-5------|

e|---------------------------------------------------------------------------|
B|---------------------------------------------------------------------------|
G|---------------------------------------------------------------------------|
D|---------------------------------------------------------------------------|
A|--7x-7x-7x-7x-7x-////------------------------------------------------------|
E|--5x-5x-5x-5x-5x-////------------------------------------------------------|


Chorus

Rhythm guitar:
-Im like sonic...

e|---------------------------------------------------------------------------|
B|---------------------------------------------------------------------------|
G|------------------------------------------------------------77777777777-7--|
D|--7-7-7-7-7-7-4-4-4-4-4-4--------------------------------------------------|
A|--5-5-5-5-5-5-2-2-2-2-2-2-5-5-5-5-5-5-7-7-7-7-7-7-----------55555555555-5--|
E|--------------------------3-3-3-3-3-3-5-5-5-5-5-5-repeat x2----------------|

Lead guitar:

e|---------------------------------------------------------------------------|
B|--10-10-10-10-10-10-7-7-7-7-7-7-8-8-8-8-8-8-7-7-7-7-7-7--------------------|
G|--7--7--7--7--7--7--7-7-7-7-7-7-7-7-7-7-7-7-7-7-7-7-7-7-repeat x2----------|
D|---------------------------------------------------------------------------|
A|---------------------------------------------------------------------------|
E|---------------------------------------------------------------------------|


Intro figure 2


Verse


Bridge
-I love these games..

e|---------------------------------------------------------------------------|
B|---------------------------------------------------------------------------|
G|---------------------------------------------------------------------------|
D|---------------------------------------------------------------------------|
A|--9----7----5x-5x-5x-5x-5x----7x-7x-7x-7x-7x-------------------------------|
E|--7----5----3x-3x-3x-3x-3x----5x-5x-5x-5x-5x-------------------------------|


Chorus


-Hey-Hey, part

e|---------------------------------------------------------------------------|
B|---------------------------------------------------------------------------|
G|---------------------------------------------------------------------------|
D|--7777777777---------------------------------------------------------------|
A|--5555555555----222222222----777777777-------------------------------------|
E|----------------000000000----555555555-repeat x4---------------------------|


Break
-I love these games so much...

e|---------------------------------------------------------------------------|
B|---------------------------------------------------------------------------|
G|--------------------------------------------------2------------------------|
D|--------------------------------------------------2------------------------|
A|--5x-5x-5x-5x-5x--7x-7x-7x-7x-7x--5x-5x-5x-5x-5x--0-hold-------------------|
E|--3x-3x-3x-3x-3x--5x-5x-5x-5x-5x--3x-3x-3x-3x-3x---------------------------|


Chorus


The End


************************************

| /   slide up
| \   slide down
| h   hammer-on
| p   pull-off
| ~   vibrato
| +   harmonic
| x   Mute note
| b   Bend
| pb  Pre-bend
| br  Bend release
| pbr Pre-bend release
| brb Bend release bend

************************************
Добавлено: 14.06.2013
Другие материалы по этой песне:
  • Аккорды и текст

Страница создана 14.06.2013
http://primanota.ru/dorm-patrol/wonderboy-chords.htm
Привет, Гость.
Предлагаем пройти революционный курс по гитаре.
Подарок от PrimaNota.Ru, забирай!