PrimaNota.ru - самый крупный в мире бесплатный архив песенных текстов, аккордов, табулатур и нот


Dorm Patrol - Dont Let This Go - таба, видео

Регистрация Запомнить меня
Войти через:  Facebook Google Twitter Vk Yandex Mail.ru

Dorm Patrol - Dont Let This Go - таба, видео

Печатать
Просмотров: 91
-------------------------------------------------------------------------------
                             DONT LET THIS GO - Dorm Patrol
-------------------------------------------------------------------------------
Tabbed by: sajv4H
E-mail: Danskfatol@live.com     

Tuning: D-standard, DGCFAd


Intro


Rhythm guitar:
-Don't let this go.....

e|---------------------------------------------------------------------------|
B|---------------------------------------------------------------------------|
G|--9-9-9-9-9-9-9-9-6-6-6-6-6-6-6-6-4-4-4-4-4-4-4-4-14-14-14-14-14-14-14-14--|
D|---------------------------------------------------------------------------|
A|--7-7-7-7-7-7-7-7-4-4-4-4-4-4-4-4-2-2-2-2-2-2-2-2-12-12-12-12-12-12-12-12--|
E|---------------------------------------------------------------------------|

Lead guitar:

e|----0-----0-----0---0-----0-----0---0-----0-----0---0-----0----------------|
B|------0-----0---------0-----0---------0-----0---------0--------------------|
G|--9-----9-----9---8-----8-----8---6-----6-----6---4-----4------------------|
D|---------------------------------------------------------------------------|
A|---------------------------------------------------------------------------|
E|---------------------------------------------------------------------------|


Intro figure 2

Rhythm guitar:

e|---------------------------------------------------------------------------|
B|---------------------------------------------------------------------------|
G|---------------------------------------------------------------------------|
D|--9-9-9-9-9-9-6-6-6-6-6-6-4-4-4-4-4-4--------------------------------------|
A|--7-7-7-7-7-7-4-4-4-4-4-4-2-2-2-2-2-2-77777x-77777x-777x-------------------|
E|--0-0-0-0-0-0-------------------------55555x-55555x-555x--repeat x2--------|

Lead guitar:

e|--12-0-11-0------14-0-12-0-11-0-------------0-----0-----0----0-------------|
B|------------12-0----------------12-0-14-0-----0-----0-----0--0-------------|
G|------------------------------------------9-----8-----6------4-hold--------|
D|---------------------------------------------------------------------------|
A|---------------------------------------------------------------------------|
E|---------------------------------------------------------------------------|


Verse


Rhythm guitar:
-Hand me the bullets...

e|---------------------------------------------------------------------------|
B|---------------------------------------------------------------------------|
G|---------------------------------------------------------------------------|
D|--9------------------------------------------------------------------------|
A|--7----------9----------7----------9---------------------------------------|
E|-------------7----------5----------7---------------------------------------|


Bridge to chorus


Rhythm guitar:
-But you're so....

e|---------------------------------------------------------------------------|
B|---------------------------------------------------------------------------|
G|---------------------------------------------------------------------------|
D|--6----------9-------------------------------------------------------------|
A|--4-hold-----7-hold-----7----------9----------99999x-----------------------|
E|------------------------5-hold-----7-hold-----77777x-----------------------|

Lead guitar:

e|--0----------0----------0----------0---------------------------------------|
B|--5----------9----------0----------0---------------------------------------|
G|--6-hold-----9-hold-----6----------9---------------------------------------|
D|------------------------7-hold-----9-hold----------------------------------|
A|---------------------------------------------------------------------------|
E|---------------------------------------------------------------------------|


Chorus


Rhythm guitar:
-Don't let this go...

e|---------------------------------------------------------------------------|
B|---------------------------------------------------------------------------|
G|---------------------------------------------------------------------------|
D|--2-2-2-2-2-2-2-2-6-6-6-6-6-6-6-6-4-4-4-4-4-4-4-4-2-2-2-2-2-2-2-2----------|
A|--2-2-2-2-2-2-2-2-4-4-4-4-4-4-4-4-2-2-2-2-2-2-2-2-0-0-0-0-0-0-0-0-repeat x2|
E|--0-0-0-0-0-0-0-0----------------------------------------------------------|

e|---------------------------------------------------------------------------|
B|---------------------------------------------------------------------------|
G|---------------------------------------------------------------------------|
D|--2x-2x-2x-2x----6x-6x-6x-6x----4-4-4-4-4-4--------------------------------|
A|--2x-2x-2x-2x----4x-4x-4x-4x----2-2-2-2-2-2--4444--7-7---------------------|
E|--0x-0x-0x-0x--------------------------------2222--5-5---------------------|

Lead guitar:

e|-----0-------0-----0-------------------------------------------------------|
B|-------0----0--------0-----------------------------------------------------|
G|--8/9----9-----8/9-----9--repeat-------------------------------------------|
D|---------------------------------------------------------------------------|
A|---------------------------------------------------------------------------|
E|---------------------------------------------------------------------------|


Verse 2


Rhythm guitar:

e|---------------------------------------------------------------------------|
B|---------------------------------------------------------------------------|
G|---------------------------------------------------------------------------|
D|--9-9-9-9-9-9-9-9----------------------------------------------------------|
A|--7-7-7-7-7-7-7-7-9-9-9-9-9-9-9-9-7-7-7-7-7-7-7-9-9-9-9-9-9-9--------------|
E|------------------7-7-7-7-7-7-7-7-5-5-5-5-5-5-5-7-7-7-7-7-7-7--------------|


Bridge to chorus

Chorus

-

Break (Lead guitar same as Intro figure 2)

Rhythm guitar

e|---------------------------------------------------------------------------|
B|---------------------------------------------------------------------------|
G|--------------------------------------------------------2------------------|
D|--------------------////6-6-6-6-6-4-4-4-4-4-------------2------------------|
A|--2-22-22----2-22-22////4-4-4-4-4-2-2-2-2-2--repeat x2--0-hold-------------|
E|--0-00-00----0-00-00-------------------------------------------------------|

Break figure 2

e|---------------------------------------------------------------------------|
B|---------------------------------------------------------------------------|
G|---------------------------------------------------------------------------|
D|---------------------------------------------------------------------------|
A|--4x4x4x4x4x4x7x7x7x7x7x7x-------------------------------------------------|
E|--------------------------5x5x5x5x5x5x7x7x7x7x7x7x--repeat x2--------------|

Lead guitar:

e|---------------------------------------------------------------------------|
B|--12-0-10-0-9-0-7-0-9-0-10-0-9-0-7-0--repeat x2----------------------------|
G|---------------------------------------------------------------------------|
D|---------------------------------------------------------------------------|
A|---------------------------------------------------------------------------|
E|---------------------------------------------------------------------------|

e|---------------------------------------------------------------------------|
B|--12-12-12-12-12-12-10-10-10-10-10-9-9-9-9-9-7-7-7-7-7--repeat x2----------|
G|---------------------------------------------------------------------------|
D|---------------------------------------------------------------------------|
A|---------------------------------------------------------------------------|
E|---------------------------------------------------------------------------|


Chorus

The End





************************************

| /   slide up
| \   slide down
| h   hammer-on
| p   pull-off
| ~   vibrato
| +   harmonic
| x   Mute note
| b   Bend
| pb  Pre-bend
| br  Bend release
| pbr Pre-bend release
| brb Bend release bend

************************************
Добавлено: 06.06.2013
Другие материалы по этой песне:
  • Аккорды и текст

Страница создана 06.06.2013
http://primanota.ru/dorm-patrol/dont-let-this-go-chords.htm
Привет, Гость.
Предлагаем пройти революционный курс по гитаре.
Подарок от PrimaNota.Ru, забирай!