PrimaNota.ru - самый крупный в мире бесплатный архив песенных текстов, аккордов, табулатур и нот


Dorje - White Dove - таба, видео

Регистрация Запомнить меня
Войти через:  Facebook Google Twitter Vk Yandex Mail.ru

Dorje - White Dove - таба, видео

Печатать
Просмотров: 246
(/) Slide Up  (\) Slide Down  (h) Hammer On  (p) Pull Off  (b) Bend (r) Release (v) Vibrato

This is what I'm pretty sure Rob teaches in this video https://www.youtube.com/watch?v=V_zQncv1474 but i may
be wrong.

Eb|--------------------
Bb|--------------------
Gb|--------------------
Db|--------------------
Ab|--7--5--------------
Eb|--------7--6--5--3--


Eb|-----------------------------------
Bb|-----------------------------------
Gb|-----------------------------------
Db|--------------------------7-----5--
Ab|--------5-----4--------------------
Eb|--0--0-----0-----5--3--0-----0-----

Rob's:                Or use Bea's picking:

Eb|---------------      Eb|-----------------
Bb|---------------      Bb|-----------------
Gb|---------------      Gb|-----------------
Db|------------0--      Db|-----------------
Ab|-------0h2-----      Ab|--------------5--
Eb|--0h3----------      Eb|--0--3--5--7-----

The "Weird Bit" :

Eb|--------------------------------------------------
Bb|--------------------------------------------------
Gb|--------------------------------------------------
Db|--------------------------------------------------
Ab|--------5-----4--------------4-----------4--------
Eb|--0--0-----0-----5--3--0--3-----3--0--5-----5--3--

I think he hits this as the last chord into the song but I'm not sure.

Eb|-----
Bb|-----
Gb|--5--
Db|--5--
Ab|-----
Eb|--5--
Добавлено: 10.08.2015
Вам также может быть интересно:
Другие материалы по этой песне:

Страница создана 10.08.2015
http://primanota.ru/dorje/white-dove-chords.htm
Привет, Гость.
Предлагаем пройти революционный курс по гитаре.
Подарок от PrimaNota.Ru, забирай!