PrimaNota.ru - самый крупный в мире бесплатный архив песенных текстов, аккордов, табулатур и нот


Dorje - Aeromancy - таба, видео

Регистрация Запомнить меня
Войти через:  Facebook Google Twitter Vk Yandex Mail.ru

Dorje - Aeromancy - таба, видео

Печатать
Просмотров: 225
-------------------------------------------------------------------------------
                             Aeromancy (Intro) - Dorje
-------------------------------------------------------------------------------
Tabbed by: paulcarter29
E-mail: paul.carter2901@hotmail.com

Tuning: Db Ab Db Gb Bb Eb

e|-13-13---------------------------------------------------------------------|
B|---------------------------------------------------------------------------|
G|-------10------------------------------------------------------------------|
D|----------12\--0-0-0-x-x-x-10p0-10p0-0-10p0-0-12---------------------------|
A|---------------------------------------------------------------------------|
E|---------------------------------------------------------------------------|


e|-13-13---------------------------------------------------------------------|
B|---------------------------------------------------------------------------|
G|-------10------------------------------------------------------------------|
D|----------12\--0-0-0-x-x-x-10p0-10p0-0-10p0-0-12---------------------------|
A|---------------------------------------------------------------------------|
E|---------------------------------------------------------------------------|

e|-13-13---------------------------------------------------------------------|
B|---------------------------------------------------------------------------|
G|-------10------------------------------------------------------------------|
D|----------12\--0-0-0-x-x-x-10p0-10p0-0-10p0-0-12---------------------------|
A|---------------------------------------------------------------------------|
E|---------------------------------------------------------------------------|

e|-13-13---------------------------------------------------------------------|
B|---------------------------------------------------------------------------|
G|-------10------------------------------------------------------------------|
D|----------12\--0-0-0-x-x-x-10p0-10p0-0-10p0-0------------------------------|
A|---------------------------------------------------------------------------|
E|---------------------------------------------------------------------------|

e|---------------------------------------------------------------------------|
B|---------------------------------------------------------------------------|
G|---------------------------------------------------------------------------|
D|-10-10---------------------------------------------------------------------|
A|-------8-------------------------------------------------------------------|
E|---------12\-0-0-0-x-x-x-10p0-10p0-0-10p0-0-12-----------------------------|


e|---------------------------------------------------------------------------|
B|---------------------------------------------------------------------------|
G|---------------------------------------------------------------------------|
D|-10-10---------------------------------------------------------------------|
A|-------8-------------------------------------------------------------------|
E|---------12\-0-0-0-x-x-x-10p0-10p0-0-10p0-0-12-----------------------------|

e|---------------------------------------------------------------------------|
B|---------------------------------------------------------------------------|
G|---------------------------------------------------------------------------|
D|-10-10---------------------------------------------------------------------|
A|-------8-------------------------------------------------------------------|
E|---------12\-0-0-0-x-x-x-10p0-10p0-0-10p0-0-12-----------------------------|

e|---------------------------------------------------------------------------|
B|---------------------------------------------------------------------------|
G|---------------------------------------------------------------------------|
D|-10-10---------------------------------------------------------------------|
A|-------8-------------------------------------------------------------------|
E|---------12\-0-0-0-x-x-x-10p0-10p0-0-10p0-0--------------------------------|



e|---------------------------------------------------------------------------|
B|---------------------------------------------------------------------------|
G|---------------------------------------------------------------------------|
D|---------------------------------------------------------------------------|
A|-2b3-0---------------------------------------------------------------------|
E|-------3b4-0-0-0-x-x-x-3p0-3p0-0-3p0-0-3p0---------------------------------|

e|---------------------------------------------------------------------------|
B|---------------------------------------------------------------------------|
G|---------------------------------------------------------------------------|
D|---------------------------------------------------------------------------|
A|-2b3-0---------------------------------------------------------------------|
E|-------3b4-0-0-0-x-x-x-3p0-3p0-0-3p0-0-3p0---------------------------------|

e|---------------------------------------------------------------------------|
B|---------------------------------------------------------------------------|
G|-5/-7-7-7-7-7\-5-5-5-5-----------------------------------------------------|
D|-3/-5-5-5-5-5\-3-3-3-3-----------------------------------------------------|
A|-3/-5-5-5-5-5\-3-3-3-3-----------------------------------------------------|
E|-3/-5-5-5-5-5\-3-3-3-3-----------------------------------------------------|

e|---------------------------------------------------------------------------|
B|---------------------------------------------------------------------------|
G|---------------------------------------------------------------------------|
D|---------------------------------------------------------------------------|
A|-2b3-0---------------------------------------------------------------------|
E|-------3b4-0-0-0-x-x-x-3p0-3p0-0-3p0-0-3p0---------------------------------|

e|---------------------------------------------------------------------------|
B|---------------------------------------------------------------------------|
G|-15/-17-17-17-17-17/-19-19-19-19-------------------------------------------|
D|-13/-15-15-15-15-15/-17-17-17-17-------------------------------------------|
A|-13/-15-15-15-15-15/-17-17-17-17-------------------------------------------|
E|-13/-15-15-15-15-15/-17-17-17-17-------------------------------------------|



************************************

| /   slide up
| \   slide down
| h   hammer-on
| p   pull-off
| ~   vibrato
| +   harmonic
| x   Mute note
| b   Bend
| pb  Pre-bend
| br  Bend release
| pbr Pre-bend release
| brb Bend release bend

************************************
Добавлено: 10.08.2015
Другие материалы по этой песне:
  • Аккорды и текст

Страница создана 10.08.2015
http://primanota.ru/dorje/aeromancy-chords.htm
Привет, Гость.
Предлагаем пройти революционный курс по гитаре.
Подарок от PrimaNota.Ru, забирай!