PrimaNota.ru - самый крупный в мире бесплатный архив песенных текстов, аккордов, табулатур и нот


Dorian - My Wine - таба, видео

Регистрация Запомнить меня
Войти через:  Facebook Google Twitter Vk Yandex Mail.ru

Dorian - My Wine - таба, видео

Печатать
Просмотров: 133
Band: Dorian
Song: My wine
Tuning: standard (eBGDAE)

Tabbed by Knut Zetterstrøm

Chours:
   Am               F                G                E      G
e|-0-0-0-0-0-0-0-0--1-1-1-1-1-1-1-1--3-3-3-3-3-3-3-3-----------3-3-3-3----|
B|-1-1-1-1-1-1-1-1--1-1-1-1-1-1-1-1--3-3-3-3-3-3-3-3--0-0-0-0--3-3-3-3----|
G|-2-2-2-2-2-2-2-2--2-2-2-2-2-2-2-2--0-0-0-0-0-0-0-0--1-1-1-1--0-0-0-0----|
D|-2-2-2-2-2-2-2-2--3-3-3-3-3-3-3-3--0-0-0-0-0-0-0-0--2-2-2-2--0-0-0-0----|
A|-0-0-0-0-0-0-0-0--3-3-3-3-3-3-3-3--2-2-2-2-2-2-2-2--2-2-2-2--2-2-2-2----|
E|------------------1-1-1-1-1-1-1-1--3-3-3-3-3-3-3-3--0-0-0-0--3-3-3-3----|
                   Play this twice and then play..

   Am    F     G     E     G
e|-0-----1-----3-----------3-----|
B|-1-----1-----3-----0-----3-----|
G|-2-----2-----0-----1-----0-----|
D|-2-----3-----0-----2-----0-----|
A|-0-----3-----2-----2-----2-----|
E|-------1-----3-----0-----3-----|


Verse:
Pretty much the same as the chours, just play with muted strings 
   Am               F                G                E        G
e|-x-x-x-x-x-x-x-x--x-x-x-x-x-x-x-x--x-x-x-x-x-x-x-x-----------x-x-x-x-|
B|-x-x-x-x-x-x-x-x--x-x-x-x-x-x-x-x--x-x-x-x-x-x-x-x--x-x-x-x--x-x-x-x-|
G|-x-x-x-x-x-x-x-x--x-x-x-x-x-x-x-x--x-x-x-x-x-x-x-x--x-x-x-x--x-x-x-x-|
D|-x-x-x-x-x-x-x-x--x-x-x-x-x-x-x-x--x-x-x-x-x-x-x-x--x-x-x-x--x-x-x-x-|
A|-x-x-x-x-x-x-x-x--x-x-x-x-x-x-x-x--x-x-x-x-x-x-x-x--x-x-x-x--x-x-x-x-|
E|------------------x-x-x-x-x-x-x-x--x-x-x-x-x-x-x-x--x-x-x-x--x-x-x-x-|


Solo:
e|--------------------------10-------------------------10------------------|
B|-13--13-13--13-13--10--12----13--13-13--13-13--10-12----13-12-10----10-12|
G|-----------------------------------------------------------------12------|
D|-------------------------------------------------------------------------|
A|-------------------------------------------------------------------------|
E|-------------------------------------------------------------------------|

e|--------------------------------------|
B|-13-12-10-----10-12-------------------|
G|-----------12-------------------------|
D|--------------------------------------| 
A|--------------------------------------|
E|--------------------------------------|

Play these things twice and then play you own thing and just improvide with wah-wah
effeck. This is the corretck version I think.. I could not se any other versions, so
I tabbed one and it sounds right.. If anyone have any corrections, e-mail me at
eg_e_meg@hotmail.com It ain't a hard song to play at all. Pretty much the same all
over and over again.. Well, have fun playing
Добавлено: 31.05.2012
Другие материалы по этой песне:
  • Аккорды и текст

Страница создана 31.05.2012
http://primanota.ru/dorian/my-wine-chords.htm
Привет, Гость.
Предлагаем пройти революционный курс по гитаре.
Подарок от PrimaNota.Ru, забирай!