PrimaNota.ru - самый крупный в мире бесплатный архив песенных текстов, аккордов, табулатур и нот


Doping Panda - Transient Happiness - таба, видео

Регистрация Запомнить меня
Войти через:  Facebook Google Twitter Vk Yandex Mail.ru

Doping Panda - Transient Happiness - таба, видео

Печатать
Просмотров: 105
Уроки эстрадного вокала в Санкт-Петербурге
*=mute
/,\=slide up,down
^=chocking

intro
E:----------------------------------------------|
B:--------10-*-11----------------10-10-*-11-----|
G:-7-*----10-*-10--------7-*-----10-10-*-10-----|
D:-8-*-8---*-*--*--------8-*-8----*--*-*--*-----|
A:-6-*-6---8-*-10-(x4)---6-*-6----8--8-*-10-----|
E:----------------------------------------------|

verse
E:----------------------------------------------|
B:--------10-*-11----------------10-10-*-11-----|
G:-7-*----10-*-10--------7-*-----10-10-*-10-----|
D:-8-*-8---*-*--*--------8-*-8----*--*-*--*-----|
A:-6-*-6---8-*-10-(x3)---6-*-6----8--8-*-10-----|
E:----------------------------------------------| x2

chorus
E:-----------------------------------------------|
B:-4*4---3-3-*-----------------------------------|
G:-3*3---3-3-*--5-*-5-*-3-3----------------------|
D:-1*1---3-3-*--3-*-3-*-5-5----------------------|
A:-------1-1-*--3-*-3-*-5-5----------------------| x2
E:--------------1-*-1-*--------------------------|

E:-----------------------------------------------|
B:-4*4-----3-3-*---------------------------------|
G:-3*3-----3-3-*----------3-3--------------------|
D:-1*1-----3-3-*----------5-5--------------------|
A:---------1-1-*--4-*-4-*-5-5--------------------| 
E:----------------2-*-2-*------------------------|

E:-----------------------------------------------|
B:-4*4---3-3-*-----------------------------------|
G:-3*3---3-3-*--5-*-5-*-3-3----------------------|
D:-1*1---3-3-*--3-*-3-*-5-5----------------------|
A:-------1-1-*--3-*-3-*-5-5----------------------| 
E:--------------1-*-1-*--------------------------|


bridge
E:-----------------------------------------------|
B:-----------------------------------------------|
G:-----3-----3-----3-----3-5-3---3---------------|
D:---3-----3-----3-----3-------3-----------------|
A:-----------------------------------------------| 
E:-4-----4-----4-----4---------------------------|

E:-----------------------------------------------|
B:-----------------------------------------------|
G:-----3-----3-----3-----3-----3-----------------|
D:---3-----3-----3-----3-----3---3---------------|
A:-1-----1-----1-----1-----1---------------------| 
E:-----------------------------------------------|
repeat these arpegio 3 times.


E:-----------------------------------------------|
B:-----------------------------------------------|
G:-----3-----3-----3-----3-5-3---3---------------|
D:---3-----3-----3-----3-------3-----------------|
A:-----------------------------------------------| 
E:-4-----4-----4-----4---------------------------|

E:-----------------------------------------------|
B:-3-3--3-3--3--3--3~----------------------------|
G:-3-3--3-3--3--3--3~----------------------------|
D:-3-3--3-3--3--3--3~----------------------------|
A:-1-1--1-1--1--1--1~----------------------------| 
E:-----------------------------------------------|

solo

E:--------------------------------------------|
B:-11-11-11-11-10------11---------------------|
G:-10-10-10-10-10-(x4)-10---------------------|
D:--------------------------------------------|
A:--------------------------------------------| 
E:--------------------------------------------|

E:--------------------------------------------|
B:--------------------------------------------|
G:-10--10\8--8\7--7\5--5--5/7--8\7------------|
D:--*---*\*--*\*--*\*--*--*/*--*\*------------|
A:--8---8\6--6\5--5\3--3--3/5--6\5------------| 
E:--------------------------------------------|

E:--------------------------------------------|
B:-11-11-11-11-10------11---------------------|
G:-10-10-10-10-10-(x4)-10---------------------|
D:--------------------------------------------|
A:--------------------------------------------| 
E:--------------------------------------------|

   ^ ^ ^
E:-9-9-9p6-------------------------------13----|
B:---------11----11----11-------11----11-------|
G:------------12----12----12-12----12----------|
D:---------------------------------------------|
A:---------------------------------------------| 
E:---------------------------------------------|


E:--------------------------------------------|
B:--------------------------------------------|
G:--------------------------------------------|
D:--------------------------------------------|
A:-10-8----------------------------------------| 
E:------10-8-1-------------------------------|

solo2 (after last chorus)

E:--------------------------------------------|
B:-11-11-11-11-10------11---------------------|
G:-10-10-10-10-10-(x4)-10---------------------|
D:--------------------------------------------|
A:--------------------------------------------| 
E:--------------------------------------------|

E:--------------------------------------------|
B:--------------------------------------------|
G:-10--10\8--8\7--7\5--5--5/7--8\7------------|
D:--*---*\*--*\*--*\*--*--*/*--*\*------------|
A:--8---8\6--6\5--5\3--3--3/5--6\5------------| 
E:--------------------------------------------|

E:--------------------------------------------|
B:-11-11-11-11-10------11---------------------|
G:-10-10-10-10-10-(x4)-10---------------------|
D:--------------------------------------------|
A:--------------------------------------------| 
E:--------------------------------------------|

E:---------------------------------------------|
B:----------------8-11-------------------------|
G:----------------8-10-------------------------|
D:---7-8---7-8----8--8-------------------------|
A:-6-----------8-------------------------------| 
E:-------6-------------------------------------|

repeat verse part few times and fade out...
E:----------------------------------------------|
B:--------10-*-11----------------10-10-*-11-----|
G:-7-*----10-*-10--------7-*-----10-10-*-10-----|
D:-8-*-8---*-*--*--------8-*-8----*--*-*--*-----|
A:-6-*-6---8-*-10-(x3)---6-*-6----8--8-*-10-----|
E:----------------------------------------------|


http://www.dopingpanda.com
Добавлено: 07.04.2012
Другие материалы по этой песне:
  • Аккорды и текст

Страница создана 07.04.2012
http://primanota.ru/doping-panda/transient-happiness-chords.htm
Привет, Гость.
Предлагаем пройти революционный курс по гитаре.
Подарок от PrimaNota.Ru, забирай!