PrimaNota.ru - самый крупный в мире бесплатный архив песенных текстов, аккордов, табулатур и нот


Dopethrone - Scum Fuck Blues - таба, видео

Регистрация Запомнить меня
Войти через:  Facebook Google Twitter Vk Yandex Mail.ru

Dopethrone - Scum Fuck Blues - таба, видео

Печатать
Просмотров: 81
Новый альбом группы 'Черный Кузнец' по культовому сериалу 'Сверхъестественное'!
[Intro]
e|---------------------------------------------------------------------------|
B|---------------------------------------------------------------------------|
G|---------------------------------------------------------------------------|
D|---------------------------------------------------------------------------|
A|-5h7-7-7-7-7-7--5h7-5h7-7-7-7--5h7-5~--------------------------------------|
E|-0---0-0-0-0-0--0---0---0-0-0--0-------------------------------------------|

e|---------------------------------------------------------------------------|
B|---------------------------------------------------------------------------|
G|---------------------------------------------------------------------------|
D|---------------------------------------------------------------------------|
A|-10p7-7-7-5-5h7-7p5-7------------------------------------------------------|
E|------0-0-----------0------------------------------------------------------|


************************************

| h  Hammer-on
| ~  Vibrato
| p  Pull-off

************************************
Добавлено: 21.05.2018
Вам также может быть интересно:
Другие материалы по этой песне:
  • Аккорды и текст

Страница создана 21.05.2018
http://primanota.ru/dopethrone/scum-fuck-blues-chords.htm
Привет, Гость.
Предлагаем пройти революционный курс по гитаре.
Подарок от PrimaNota.Ru, забирай!