PrimaNota.ru - самый крупный в мире бесплатный архив песенных текстов, аккордов, табулатур и нот


Dopethrone - Dry Hitter - таба, видео

Регистрация Запомнить меня
Войти через:  Facebook Google Twitter Vk Yandex Mail.ru

Dopethrone - Dry Hitter - таба, видео

Печатать
Просмотров: 91
Уроки эстрадного вокала в Санкт-Петербурге
-------------------------------------------------------------------------------
                             Dry Hitter - Dopethrone
-------------------------------------------------------------------------------
Tabbed by: Chris
Tuning: C-Standard: C F Bb Eb G C

Intro 
6x Riff 1

Main part
4x Riff 1
2x Riff 2a+b
4x Riff 1
2x Riff 2a+b

3x open C
Bass and drums only

Main Part again and end on a couple of open C.

Riff 1:
C |----------------------------------------------------------------------------|
G |----------------------------------------------------------------------------|
Eb|----------------------------------------------------------------------------|
Bb|----------------------------------------------------------------------------|
F |-------8-7-7-----8-6-6----5-7-7---------------------------------------------|
C |0-0-0---------0-0------0-0--------------------------------------------------|

Riff 2a:
C |----------------------------------------------------------------------------|
G |----------------------------------------------------------------------------|
Eb|----------------------------------------------------------------------------|
Bb|----------------------------------------------------------------------------|
F |-------7-8-8\5-5-5--5-7-7-5-7-7---------------------------------------------|
C |0-0-0-----------------------------------------------------------------------|

Riff 2b:
C |----------------------------------------------------------------------------|
G |----------------------------------------------------------------------------|
Eb|----------------------------------------------------------------------------|
Bb|----------------------------------------------------------------------------|
F |-------7-8-8\5-5-5--5/10-10-10-10-------------------------------------------|
C |0-0-0-----------------------------------------------------------------------|


************************************

| /   slide up
| \   slide down
| h   hammer-on
| p   pull-off
| ~   vibrato
| +   harmonic
| x   Mute note
| b   Bend
| pb  Pre-bend
| br  Bend release
| pbr Pre-bend release
| brb Bend release bend

************************************
Добавлено: 06.12.2015
Другие материалы по этой песне:
  • Аккорды и текст

Страница создана 06.12.2015
http://primanota.ru/dopethrone/dry-hitter-chords.htm
Привет, Гость.
Предлагаем пройти революционный курс по гитаре.
Подарок от PrimaNota.Ru, забирай!