PrimaNota.ru - самый крупный в мире бесплатный архив песенных текстов, аккордов, табулатур и нот


Dope - We Are - таба, видео

Регистрация Запомнить меня
Войти через:  Facebook Google Twitter Vk Yandex Mail.ru

Dope - We Are - таба, видео

Печатать
Просмотров: 70
Intro                                                  
--------------------------|---------|---------------------|-------------------------|--------------
--------------------------|---------|---------------------|-------------------------|--------------
--------------------------|---------|---------------------|-------------------------|--------------
--------------------------|---------|--6-0--0-3-6-0-6-8-3-|---------6-0--0-3-6-0--8*|--------------
--------------------------|---------|--6-0--0-3-6-0-6-8-3-|---------6-0--0-3-6-0----|--------------
-/////////-\\\\\\\\\\\\\\-|-12////--|--6-0--0-3-6-0-6-8-3-|-12////--6-0--0-3-6-0----|12//////------
      Pick Scrape         (tremelo pick
                      down to the first fret)

-----------------------|------------------------------|--------------------------------------------|
-----------------------|------------------------------|--------------------------------------------|
-----------------------|------------------------------|--------------------------------------------|
-6-0--0-3-6-0---/13--6-|-----------6-0--0-3-6-0-------|--------------------------------------------|
-6-0--0-3-6-0----------|-----------6-0--0-3-6-0-------|-----1-----1-----1------1-------------------|
-6-0--0-3-6-0----------|-12//////--6-0--0-3-6-0---8b~~|-1-1---1-1---1-1----1-1---------------------|


Verse pt.1                            Verse pt.2            fill 1   fill 2               fill 3
-----------|---------------------|------------------------|-------|--------------------|-----------|
-----------|-------------9-9-9-8-|------------------------|-------|--------------------|-----------|
-----------|-------------x-x-x-x-|------------------------|-3--2--|--------------------|-----8-7---|
--3-6-0----|--6---7--5---6-6-6-5-|-3-6-0------------------|-------|---------5h7h8------|-7-8-------|
--3-6-0----|--6---5--3-----------|-3-6-0------------------|-------|--5h6h8-------------|-----------|
--3-6-0----|--6------------------|-3-6-0--0000000000000000|-------|--------------------|-----------|
   3X


Chorus                                                        fill
------------------------------------------------------------|-------|
------------------------------------------------------------|-------|
------------------------------------------------------------|-------|
--3h6-0-5h6-0----3h6-0010---010-3h6-0---------0-3-6-0-6-8-3-|-0-----|
--3h6-0-5h6-0----3h6-0010---010-3h6-0---------0-3-6-0-6-8-3-|-0-----|
--3h6-0-5h6-0----3h6-0010---010-3h6-0---------0-3-6-0-6-8-3-|-0-/8~-|

Pre-solo\Outro
-------------------------------------------------------------------|
-------------------------------------------------------------------|
-------------------------------------------------------------------|
-------------------------------------------------------------------|
-------------------------------------------------------------------|
----3--6--0---1--0-----0-0-1-0--6-0-------0--0-1-0-6--1------------|

Solo-IDK-Maby B Phrigian


Bridge
------------------|-----------------------------------------|
------------------|-----------------------------------------|
------------------|-----------------------------------------|
--0h6-0--1-1-0-0--|---0-6-3-0-1-1-0-0----0-1-0-1-3----------|
------------------|-----------------------------------------|
------------------|-----------------------------------------|
Добавлено: 29.04.2016
Другие материалы по этой песне:
  • Аккорды и текст

Страница создана 29.04.2016
http://primanota.ru/dope/we-are-chords.htm
Привет, Гость.
Предлагаем пройти революционный курс по гитаре.
Подарок от PrimaNota.Ru, забирай!