PrimaNota.ru - самый крупный в мире бесплатный архив песенных текстов, аккордов, табулатур и нот


Dope - Sex Machine - текст песни, таба, видео

Регистрация Запомнить меня
Войти через:  Facebook Google Twitter Vk Yandex Mail.ru

Dope - Sex Machine - текст песни, таба, видео

Печатать
Просмотров: 238
tuning: C#
/ slide () palm mute
intro and chorus
d#-----------------------------------------------------|
a#-----------------------------------------------------|
f#-----------------------------------------------------|
c#-0-0-30-0-30-0-0-33-6-0-0-30-0-30-0-0-66-2-----------|
g#-0-0-30-0-30-0-0-33-6-0-0-30-0-30-0-0-66-2-----------|
c#-0-0-30-0-30-0-0-33-6-0-0-30-0-30-0-0-66-2---2-------| times

verse
d#----------------------------------------------------|
a#----------------------------------------------------|
f#----------------------------------------------------|
c#----------3/6-----------6/2-------------------------|
g#----------3/6-----------6/2-------------------------|
c#0000-0000-3/6-0000-0000-6/2-----------------2 times-|

interlude
d#----------------------------------------------------|
a#----------------------------------------------------|
f#----------------------------------------------------|
c#--------------------xx-(33)---xx-(33)---------------|
g#--------------------xx-(33)---xx-(33)---------------|
c#xx-(33)---xx-(33)---xx-(33)---xx-(33)---------------|

d#----------------------------------------------------|
a#----------------------------------------------------|
f#----------------------------------------------------|
c#00-33-00-33-00-33---6-33----------------------------|
g#00-33-00-33-00-33---6-33----------------------------|
c#00-33-00-33-00-33---6-33-----4 times----------------|

song structure
intro
verse
chorus
verse
chorus
interlude
chorus

i didnt get the solo or little effect thing ether. Ill change the tab when i get time >:)
Добавлено: 09.06.2012
Другие материалы по этой песне:
  • Аккорды и текст

Страница создана 11.03.2012
http://primanota.ru/dope/sex-machine-chords.htm
Привет, Гость.
Предлагаем пройти революционный курс по гитаре.
Подарок от PrimaNota.Ru, забирай!