PrimaNota.ru - самый крупный в мире бесплатный архив песенных текстов, аккордов, табулатур и нот


Dope - Paranoia - текст песни, таба, бас-таба, видео

Регистрация Запомнить меня
Войти через:  Facebook Google Twitter Vk Yandex Mail.ru

Dope - Paranoia - текст песни, таба, бас-таба, видео

Печатать
Просмотров: 522
Уроки эстрадного вокала в Санкт-Петербурге
                        DOPE: PARANOIA.

Guitar 1: Edsel.
Guitar 2: Virus.

Intro

Guitar 1
E:---------------------------------------------------------:
B:-------6---------------6------------6---------------6----:
G:-5-5-5---5-5-5-5-5-5-5---5-5--5-5-5---5-5-5-5-5-5-5---5-5:
D:---------------------------------------------------------:
A:---------------------------------------------------------:
E:---------------------------------------------------------:



Guitar 1 and 2
E:-------6---------------6------------6---------------6----:
B:-5-5-5---5-5-5-5-5-5-5---5-5--5-5-5---5-5-5-5-5-5-5---5/1:
G:---------------------------------------------------------:
D:---------------------------------------------------------:
A:---------------------------------------------------------:
E:---------------------------------------------------------:

Verse 1

Guitar 1 and 2
E:---------------------------------------------------------------:
B:---------------------------------------------------------------:
G:---------------------------------------------------------------:
D:-0-0-0-4-5-4-0--0-0-0-4-5-4-0--0-0-0-4-5-4-0--12-12-13-13-14-14:
A:-0-0-0-4-5-4-0--0-0-0-4-5-4-0--0-0-0-4-5-4-0--12-12-13-13-14-14:
E:-0-0-0-4-5-4-0--0-0-0-4-5-4-0--0-0-0-4-5-4-0--12-12-13-13-14-14:

E:---------------------------------------------------------------:
B:---------------------------------------------------------------:
G:---------------------------------------------------------------:
D:-0-0-0-4-5-4-0--0-0-0-4-5-4-0--0-0-0-4-5-4-0--12-13-12-13-12-14:
A:-0-0-0-4-5-4-0--0-0-0-4-5-4-0--0-0-0-4-5-4-0--12-13-12-13-12-14:
E:-0-0-0-4-5-4-0--0-0-0-4-5-4-0--0-0-0-4-5-4-0--12-13-12-13-12-14:

Verse 2

Guitar 2.
E:-------------------------------------------------:
B:-------------------------------------------------:
G:-------------------------------------------------:
D:-------------------------------------------------:
A:---------------------5-5-5-6-5-------------------:
E:-5/1-000000000000000----------5/1-000000000000000:
       xxxxxxxxxxxxxxx              xxxxxxxxxxxxxxx
Pre-chorus.

Guitar 1.              Guitar 2.
E:-------------:       E:--------------------------------------------------:
B:-------------:       B:--------------------------------------------------:
G:-------------:       G:--------------------------------------------------:
D:-7-7-10-12-12:       D:-7-7-10-12--12-13-13--12-13-13--12-13-13--12-13-13:
A:-7-7-10-12-12:       A:-7-7-10-12----------------------------------------:
E:-------------:       E:--------------------------------------------------:

Chorus.

Guitar 1 and 2.
E:---------------------------------------------------------------:
B:---------------------------------------------------------------:
G:---------------------------------------------------------------:
D:-0-0-0-4-5-4-0--0-0-0-4-5-4-0--0-0-0-4-5-4-0--12-12-13-13-14-14:
A:-0-0-0-4-5-4-0--0-0-0-4-5-4-0--0-0-0-4-5-4-0--12-12-13-13-14-14:
E:-0-0-0-4-5-4-0--0-0-0-4-5-4-0--0-0-0-4-5-4-0--12-12-13-13-14-14:

E:---------------------------------------------------------------:
B:---------------------------------------------------------------:
G:---------------------------------------------------------------:
D:-0-0-0-4-5-4-0--0-0-0-4-5-4-0--0-0-0-4-5-4-0--12-13-12-13-12-14:
A:-0-0-0-4-5-4-0--0-0-0-4-5-4-0--0-0-0-4-5-4-0--12-13-12-13-12-14:
E:-0-0-0-4-5-4-0--0-0-0-4-5-4-0--0-0-0-4-5-4-0--12-13-12-13-12-14:

Bridge.
Guitar 1 and 2.
E:-----------------:       :------:
B:---6-------------:       :---6--:
G:-5---5^-5-xxxxxxx:  x2   :-5---5:
D:-----------------:       :------:
A:-----------------:       :------:
E:-----------------:       :------:

Repeat verse 2.
Repeat pre-chorus x2.
Repeat chorus.

Verse 3.
Guitar 2.
E:--------------------------------------------------|
B:--------------------------------------------------|
G:--------------------------------------------------|
D:-0-0-0-12-13-12-13-12-13--0-0-0-12-13-12-13-12-13-|
A:-0-0-0--------------------0-0-0-------------------|
E:-0-0-0--------------------0-0-0-------------------|

-------------------------------------------------:
-------------------------------------------------:
-------------------------------------------------:
-0-0-0-12-12-12-12-12-13--0-0-0-12-12-12-12-12-13:
-0-0-0--------------------0-0-0------------------:
-0-0-0--------------------0-0-0------------------:

Guitar 1.
E:--------------------------------------------------|
B:--------------------------------------------------|
G:--------------------------------------------------|
D:-0-0-0--0-0-0-0-0-0-0-0---0-0-0--0-0-0-0-0-0-0-0-0|
A:-0-0-0--0-0-0-0-0-0-0-0---0-0-0--0-0-0-0-0-0-0-0-0|
E:-0-0-0--0-0-0-0-0-0-0-0---0-0-0--0-0-0-0-0-0-0-0-0|

---7-7-7---7-7-7---7-7-7---7-7-7---7-7-7---7-7-7:
-6-------6-------6-------6-------6-------6------:
------------------------------------------------:
------------------------------------------------:
------------------------------------------------:
------------------------------------------------:


Repeat intro for edsel.

Verse 4.
E:------------:
B:------------:
G:------------:
D:-0-0--0--0-0:
A:-0-0--0--0-0:
E:-0-0--0--0-0:
Repeat chorus x2.
For guitar 2 repeat chorus\ for guitar 1 repeat the last part of verse 3.
Repeat verse 4.

That's all.
Sorry for the 2° part xD.
Добавлено: 25.06.2012
Другие материалы по этой песне:
  • Аккорды и текст

Страница создана 28.02.2012
http://primanota.ru/dope/paranoia-chords.htm
Привет, Гость.
Предлагаем пройти революционный курс по гитаре.
Подарок от PrimaNota.Ru, забирай!