PrimaNota.ru - самый крупный в мире бесплатный архив песенных текстов, аккордов, табулатур и нот


Dope - No Way Out - текст песни, таба, бас-таба, видео

Регистрация Запомнить меня
Войти через:  Facebook Google Twitter Vk Yandex Mail.ru

Dope - No Way Out - текст песни, таба, бас-таба, видео

Печатать
Просмотров: 166
Drop B

guitar 1-virus
guitar 2-edsel


Intro                 end 1            end 2 
------------------|--------------|---------------------------|
------------------|--------------|---------------------------|
------------------|--------------|---------------------------|
------------------|--------------|---------------------------|
------------------|---\8p0-------|-----3-3-------------------|
--0-22-2---0-22---|--------------|-----3-3-------------------|



Verse                             Pre-chorus
----------------|------------|-----------------------------------|
----------------|------------|-----------------------------------|
----------------|------------|-----------------------------------|
----------------|---0--------|-----2-----------------------------|
----------------|---0--------|--1------1---0---1---2-------------|
---3-2-0-2------|---0--------|-----------------------------------|


Pre-chorus cont'd
----------------------------------------------|
----------------------------------------------|
----------------------------------------------|
---8---7---5----3--2----3---0-----------------|
---8---7---5----3--2----3---0-----------------|
---8---7---5----3--2----3---0-----------------|


Chorus
---------------------------|----------|----------------------|
---------------------------|----------|----------------------|
---------------------------|----------|----------------------|
---------------------------|----------|----------------------|
---------------------------|---\\7----|---8--7----5----------|
---3--222--3-2--22---3-2---|----------|---8--7----5----------|

solo-idk


Bridge
----------------------------|
----------------------------|
----------------------------|
----------------------------|
----------------------------|
------2-1-0---2-1-00--------|
Добавлено: 29.04.2016
Другие материалы по этой песне:
  • Аккорды и текст

Страница создана 10.08.2013
http://primanota.ru/dope/no-way-out-chords.htm
Привет, Гость.
Предлагаем пройти революционный курс по гитаре.
Подарок от PrimaNota.Ru, забирай!