PrimaNota.ru - самый крупный в мире бесплатный архив песенных текстов, аккордов, табулатур и нот


Dope - 6-6-Sick - таба, видео

Регистрация Запомнить меня
Войти через:  Facebook Google Twitter Vk Yandex Mail.ru

Dope - 6-6-Sick - таба, видео

Печатать
Просмотров: 130
Tuning - Drop B (B,F#,B,E,G#,C#)


Intro                           end 1                              end 2
----------------|------5*------10*--9*\--------------|---5*\------------------------------------
----------------|---3*-----------------\-------------|------\-----------------------------------
----------------|-----------------------\------------|-------\----------------------------4-----
----------------|------------------------\whammybar--|--------\whammybar--------3-5-3-5-7-------
----------------|--------------------------dive------|----------dive--------5-6-----------------
000-00-0-000-00-|------------------------------------|------------------------------------------


-------------------------------------|----------------------------------------------------------
-------------------------------------|----------------------------------------------------------
-------------------------------------|-----22------22-------777-----8---------------------------
-------------------------------------|--------------------------------------0----12\------------
-------------------------------------|--------0000------55-------6----------0----12\------------
-000-00-0-000-00--0-000-00-0-000-6-1-|-000----------------------------------0----12\------------


Intro lead  (0:25)     end 1               end 2             fill 
------------------|---------------|---------------------|---------------------------------------
------------------|---------------|------------9h10h12--|-----10-------9------8-----7----4~-----
-7~-8~------------|-5h7h8--7h810--|--9h10h12------------|---------------------------------------
------------------|---------------|---------------------|-12------11------10----9---------------
------------------|---------------|---------------------|---------------------------------------
------------------|---------------|---------------------|---------------------------------------

Verse
--------|-----------|---------|--------------------|
--------|-----------|---------|--------------------|
--------|-----------|---------|--------------------|
--------|-----------|---------|--------------------|
--------|-----------|---------|---0----------------|
00-00-0-|00-00--6-1-|-00-00-0-|------6-5-3---6-5-1-|
  7x                    3x

Chorus
----------------------------------------------------|------------------------------------------
----------------------------------------------------|------------------------------------------
----------------------------------------------------|------------------------------------------
----------------------------------------------------|------------------------------------------
----------------------------------------------------|----7--6--5----3----1---------------------
-0-1-0-0010-0-3-0-0567----0-1-0-0010-0-3-0--765-3---|--7--6--5---3-------1---------------------


The only thing i don't know are the whammy bar fills and solo!
Добавлено: 29.04.2016
Вам также может быть интересно:
Другие материалы по этой песне:
  • Аккорды и текст

Страница создана 29.04.2016
http://primanota.ru/dope/6-6-sick-chords.htm
Привет, Гость.
Предлагаем пройти революционный курс по гитаре.
Подарок от PrimaNota.Ru, забирай!