PrimaNota.ru - самый крупный в мире бесплатный архив песенных текстов, аккордов, табулатур и нот


Dopamine - Something I Remember - таба, видео

Регистрация Запомнить меня
Войти через:  Facebook Google Twitter Vk Yandex Mail.ru

Dopamine - Something I Remember - таба, видео

Печатать
Просмотров: 113
hey not sure wether this a dopamine song but i found it on some of there very first 
so hope you enjoy.

Intro- Clean x4
e---------------------------|
b---------------------------|
g------12-12--7-7--7--9-9---|
d-9-9--12-12--7-7--7--9-9---|
a-9-9--10-10--5-5--5--7-7---|
e-7-7-----------------------|

Verse - Distortion x4
same as intro

Pre-Chorus

e---------------------------------------------------------|
b---------------------------------------------------------|
g---------------------------------------------------------|
d--7///////////--5///////////--7///////////--5///////////-|
a--7///////////--5///////////--7///////////--5///////////-|
e--5///////////--3///////////--5///////////--3///////////-|

Chorus

e------------------------|
b------------------------|
g------------------------|
d--2----2----2----2------|
a--2----2----2----2------|
e--0----0----0----0------|

Bridge

e------------------------------------------|
b------------------------------------------|
g------------------------------------------|
d--9///////--5///////--7///////--5///////--|
a--9///////--5///////--7///////--5///////--|
e--7///////--3///////--5///////--3///////--|

Bass Part/Break

e--------<12>----------------|
b--------<12>----------------|
g----------------------------|
d--7------------7------------|
a--7------------7------------|
e--5------------5------------|

Interlude 1 x4

e------------------------------------------------|
b------------------------------------------------|
g------------------------------------------------|
d--7-7--10-10--12-12--12BU-10--7-7--10-10-5-5----|
a--7-7--10-10--12-12-----------7-7--10-10-5-5----|
e--5-5--8--8---10-10-----------5-5--8--8--3-3----|

Interlude 2

e------------------------------------------------------------|
b------------------------------------------------------------|
g------------------------------------------------------------|
d--2--//--/--//--/--//--/--//--/--//--/--//--/--//--/--//----|
a--2--//--/--//--/--//--/--//--/--//--/--//--/--//--/--//----|
e--0--//--/--//--/--//--/--//--/--//--/--//--/--//--/--//----|

Then verse

Finish on

e-----
b-----
g-----
d--7--
a--7--
e--9--

Thanks and happy playin.
Добавлено: 14.07.2012
Вам также может быть интересно:
Другие материалы по этой песне:
  • Аккорды и текст

Страница создана 14.07.2012
http://primanota.ru/dopamine/something-i-remember-chords.htm
Привет, Гость.
Предлагаем пройти революционный курс по гитаре.
Подарок от PrimaNota.Ru, забирай!