PrimaNota.ru - самый крупный в мире бесплатный архив песенных текстов, аккордов, табулатур и нот


Doosu - Louisiana House Fire Mid 1950s - таба, видео

Регистрация Запомнить меня
Войти через:  Facebook Google Twitter Vk Yandex Mail.ru

Doosu - Louisiana House Fire Mid 1950s - таба, видео

Печатать
Просмотров: 91
Hey again :] its grim_rper and this is my version on louisiana house fire
so i hope you guys like it
hey umm i dont know the lyrics to this song so help me out here xD ima try my best to 
out the words sorry if im wrong :]

For people who want to see the video:
ATTENTION!!!!!
i now have the link to the youtube video 
I'll make tutorials later
Link 1: http://www.youtube.com/watch?v=72HSyerBnug

key
vibrato: ~
Palm-mute: .
slide: /

Guitar 1 :Intro
e-----------------------------------------------------------------|
b-----------------------------------------------------------------|
g---------------------------------------------------777777-999999-|
d----------44-4-4------------44-4-4-----------------777777-999999-|
a------------------------------------44-4-4-44-4-4--555555-777777-|
e---00-0-0------------00-0-0---------44-4-4-44-4-4----------------|

Guitar 1: intro ending
e-----------------------------------------------------------------|
b-----------------------------------------------------------------|
g---------------------------------------------------777777-999999-|
d----------44-4-4------------44-4-4-----------------777777-999999-|
a------------------------------------44-4-4-44-4-4--555555-777777-|
e---00-0-0------------00-0-0---------44-4-4-44-4-4----------------|
{while the first guitar plays}
Guitar 2:(note)(it might sound weird but really listen to the song.)
e-7-7-7-7-7-7----7-7-7-7-7-7---7-7-7-7-7-7-12-12-12-12-12-12---|
b-9-9-9-9-9-9----9-9-9-9-9-9---9-9-9-9-9-9-12-12-12-12-12-12---|
g-9-9-9-9-9-9----9-9-9-9-9-9---9-9-9-9-9-9-13-13-13-13-13-13---|
d-7-7-7-7-7-7----7-7-7-7-7-7---7-7-7-7-7-7-12-12-12-12-12-12---|
a--------------------------------------------------------------|
e--------------------------------------------------------------|

Guitar 1: intro ending part II
e-----------------------------------------------------------------|
b-----------------------------------------------------------------|
g---------------------------------------------------777777-999999-|
d----------44-4-4------------44-4-4-----------------777777-999999-|
a------------------------------------44-4-4-44-4-4--555555-777777-|
e---00-0-0------------00-0-0---------44-4-4-44-4-4----------------|
Guitar 2:
e-7-7-7-7-7-7----7-7-7-7-7-7-----------------|
b-9-9-9-9-9-9----9-9-9-9-9-9---/11-9-7-9~----|
g-9-9-9-9-9-9----9-9-9-9-9-9----/9-7-5-7~----|
d-7-7-7-7-7-7----7-7-7-7-7-7-----------------|
a--------------------------------------------|
e--------------------------------------------|


Guitar 1: intro (chorus)
e-----------------------------------------------------------------|
b-----------------------------------------------------------------|
g---------------------------------------------------777777-999999-|
d----------44-4-4------------44-4-4-----------------777777-999999-|
a------------------------------------44-4-4-44-4-4--555555-777777-|
e---00-0-0------------00-0-0---------44-4-4-44-4-4----------------|
Guitar 2:
e-7-7-7-7-7-7----7-7-7-7-7-7---7-7-7-7-7-7-12-12-12-12-12-12---|
b-9-9-9-9-9-9----9-9-9-9-9-9---9-9-9-9-9-9-12-12-12-12-12-12---|
g-9-9-9-9-9-9----9-9-9-9-9-9---9-9-9-9-9-9-13-13-13-13-13-13---|
d-7-7-7-7-7-7----7-7-7-7-7-7---7-7-7-7-7-7-12-12-12-12-12-12---|
a--------------------------------------------------------------|
e--------------------------------------------------------------|
    yyyeeeaaaa--hh!  this house is oonn fffiiirrreeerrereaaaa!!!! <- xD lol
Guitar 1: intro (chorus)
e-----------------------------------------------------------------|
b-----------------------------------------------------------------|
g---------------------------------------------------777777-999999-|
d----------44-4-4------------44-4-4-----------------777777-999999-|
a------------------------------------44-4-4-44-4-4--555555-777777-|
e---00-0-0------------00-0-0---------44-4-4-44-4-4----------------|
Guitar 2:
e-7-7-7-7-7-7----7-7-7-7-7-7-----------------|
b-9-9-9-9-9-9----9-9-9-9-9-9---/11-9-7-9~----|
g-9-9-9-9-9-9----9-9-9-9-9-9----/9-7-5-7~----|
d-7-7-7-7-7-7----7-7-7-7-7-7-----------------|
a--------------------------------------------|
e--------------------------------------------|
 yyeyeaaaauuuhhh  leettss buurn it like u want love..?oO

Guitar 1: intro (chorus) part II
e-----------------------------------------------------------------|
b-----------------------------------------------------------------|
g---------------------------------------------------777777-999999-|
d----------44-4-4------------44-4-4-----------------777777-999999-|
a------------------------------------44-4-4-44-4-4--555555-777777-|
e---00-0-0------------00-0-0---------44-4-4-44-4-4----------------|

Guitar 2:
e-7-7-7-7-7-7----7-7-7-7-7-7---7-7-7-7-7-7-12-12-12-12-12-12---|
b-9-9-9-9-9-9----9-9-9-9-9-9---9-9-9-9-9-9-12-12-12-12-12-12---|
g-9-9-9-9-9-9----9-9-9-9-9-9---9-9-9-9-9-9-13-13-13-13-13-13---|
d-7-7-7-7-7-7----7-7-7-7-7-7---7-7-7-7-7-7-12-12-12-12-12-12---|
a--------------------------------------------------------------|
e--------------------------------------------------------------|
  redd flamees  watch it burn sloowww?  (sorry i need help with lyrics xP)
Guitar 1: intro (chorus) part II
e-----------------------------------------------------------------|
b-----------------------------------------------------------------|
g---------------------------------------------------777777-999999-|
d----------44-4-4------------44-4-4-----------------777777-999999-|
a------------------------------------44-4-4-44-4-4--555555-777777-|
e---00-0-0------------00-0-0---------44-4-4-44-4-4----------------|
Guitar 2:
e-7-7-7-7-7-7----7-7-7-7-7-7-----------------|
b-9-9-9-9-9-9----9-9-9-9-9-9---/11-9-7-9~----|
g-9-9-9-9-9-9----9-9-9-9-9-9----/9-7-5-7~----|
d-7-7-7-7-7-7----7-7-7-7-7-7-----------------|
a--------------------------------------------|
e--------------------------------------------|
come waterr  too ppuutt ouutt thiiss  flllaammmeee...

Guitar 1: Verse
e-----------------------------------------------|
b-----------------------------------------------|
g-----------------------------------------------|
d------4-------4--------4--------5------7-------|
a----0---0---0---0----4---4---------------------|
e--0-------0--------4-------4/5-----5/7---------|
  little boy dont you play with fire

Guitar 1:
e----------------------------------------------|
b----------------------------------------------|
g----------------------------------------------|
d------4-------4--------4---------9---9---9/0--|
a----0---0---0---0----4---4---------7---7------|
e--0-------0--------4--------4/7---------------|
  so hot in the closet...

Guitar 1:
e-----------------------------------------------|
b-----------------------------------------------|
g-----------------------------------------------|
d------4-------4--------4--------5------7-------|
a----0---0---0---0----4---4---------------------|
e--0-------0--------4-------4/5-----5/7---------|
    little tree by the coverr
Guitar 1:
e----------------------------------------------|
b----------------------------------------------|
g----------------------------------------------|
d------4-------4--------4---------9---9---9/0--|
a----0---0---0---0----4---4---------7---7------|
e--0-------0--------4--------4/7---------------|
the wall is brighten the jackets coma alivee

Guitar 1 :Chorus
e-----------------------------------------------------------------|
b-----------------------------------------------------------------|
g---------------------------------------------------777777-999999-|
d----------44-4-4------------44-4-4-----------------777777-999999-|
a------------------------------------44-4-4-44-4-4--555555-777777-|
e---00-0-0------------00-0-0---------44-4-4-44-4-4----------------|
    yyyeeeaaaa--hh!  this house is oonn fffiiirrreeerrereaaaa!!!!

Guitar 1 :Chorus
e-----------------------------------------------------------------|
b-----------------------------------------------------------------|
g---------------------------------------------------777777-999999-|
d----------44-4-4------------44-4-4-----------------777777-999999-|
a------------------------------------44-4-4-44-4-4--555555-777777-|
e---00-0-0------------00-0-0---------44-4-4-44-4-4----------------|
     yyeyeaaaauuuhhh  leettss buurn it like u want love
Guitar 1 :Chorus
e-----------------------------------------------------------------|
b-----------------------------------------------------------------|
g---------------------------------------------------777777-999999-|
d----------44-4-4------------44-4-4-----------------777777-999999-|
a------------------------------------44-4-4-44-4-4--555555-777777-|
e---00-0-0------------00-0-0---------44-4-4-44-4-4----------------|
    redd flamees  watch it burn sloowww
Guitar 1 :Chorus
e-----------------------------------------------------------------|
b-----------------------------------------------------------------|
g---------------------------------------------------777777-999999-|
d----------44-4-4------------44-4-4-----------------777777-999999-|
a------------------------------------44-4-4-44-4-4--555555-777777-|
e---00-0-0------------00-0-0---------44-4-4-44-4-4----------------|
  come waterr  too ppuutt ouutt thiiss  flllaammmeee...

Guitar 1: Interlude
e------------------------------------------|
b------------------------------------------|
g------------------------------------------|
d--2-2-2-2-2-2-2-2/6-6-6-6-6/7-7-7/9--9----|
a--2-2-2-2-2-2-2-2/6-6-6-6-6/7-7-7/9--9----|
e--2-2-2-2-2-2-2-2/6-6-6-6-6/7-7-7/9--9----|
Guitar 2:
e-----------------------------------------|
b-----------------------------------------|
g--4-4-4-4-4-4-4-4/8-8-8-8-8/9-9-9/11-11--|
d--2-2-2-2-2-2-2-2/6-6-6-6-6/7-7-7/9--9---|
a-----------------------------------------|
e-----------------------------------------|

Guitar 1: Interlude end
e------------------------------------------|
b------------------------------------------|
g------------------------------------------|
d--2-2-2-2-2-2-2-2/6-6-6-6-6/7-7-7/9--9----|
a--2-2-2-2-2-2-2-2/6-6-6-6-6/7-7-7/9--9----|
e--2-2-2-2-2-2-2-2/6-6-6-6-6/7-7-7/9--9----|
Guitar 2:
e-------------------------------------|
b-------------------------------------|
g--4-4-4-4-4-4-4-4/8-8-8-8-8/9^11-----|(hold)
d--2-2-2-2-2-2-2-2/6-6-6-6-6/7--------|
a-------------------------------------|
e-------------------------------------|

Guitar 1: bridge
e-----------------9-----------------9-|
b---------------7-----------------7---|
g-------------7-----------------7-----|
d--0-0-0-0-0---------0-0-0-0-0--------|
a--0-0-0-0-0---------0-0-0-0-0--------|
e--0-0-0-0-0---------0-0-0-0-0--------|
   . . . . .         . . . . .
Guitar 2:
e------------------------------------------------------|
b---------------0-0-0-0-0-0----------------0-0-0-0-0-0-|
g---------------7-7-7-7-7-7----------------7-7-7-7-7-7-|
d--0-0-0-0-0-----------------0-0-0-0-0-0---------------|
a--0-0-0-0-0-----------------0-0-0-0-0-0---------------|
e--0-0-0-0-0-----------------0-0-0-0-0-0---------------|
   . . . . .                 . . . . . .
                               keep pushing water..
Guitar 1:
e----------------------------------------------------------|
b----------------------------------------------------------|
g----------------------------------------------------------|
d--4-4-4-4-4-4-4/7-7-7-7-7-7-7-7/2-2-2-2-2-2-2/1-2-2-2/1---|
a--4-4-4-4-4-4-4/7-7-7-7-7-7-7-7/2-2-2-2-2-2-2/1-2-2-2/1---|
e--4-4-4-4-4-4-4/7-7-7-7-7-7-7-7/2-2-2-2-2-2-2/1-2-2-2/1---|
   . . . . . .     . . . . . .     . . . . .
Guitar 2:
e------------------------------------------------|
b------------------------------------------------|
g--6-6-6-6-6-9-9-9-9-9-8-8-8-8-8-13-13-13-13-13--|
d--4-4-4-4-4-7-7-7-7-7-6-6-6-6-6-11-11-11-11-11--|
a------------------------------------------------|
e------------------------------------------------|

Guitar 1: bridge
e--------------9-----------------9--|
b------------7-----------------7----|
g----------7-----------------7------|
d--0-0-0-----------0-0-0-0-0--------|
a--0-0-0-----------0-0-0-0-0--------|
e--0-0-0-----------0-0-0-0-0--------|
   . . .           . . . . .
Guitar 2:
e------------------------------------------------------|
b------------0-0-0-0-0-0----------------0-0-0-0-0-0----|
g------------7-7-7-7-7-7----------------7-7-7-7-7-7----|
d--0-0-0-------------------0-0-0-0-0-0-----------------|
a--0-0-0-------------------0-0-0-0-0-0-----------------|
e--0-0-0-------------------0-0-0-0-0-0-----------------|
   . . .                   . . . . . .
                     keep pushing wwaater
Guitar 1:
e----------------------------------------------------------|
b----------------------------------------------------------|
g----------------------------------------------------------|
d--4-4-4-4-4-4-4/7-7-7-7-7-7-7-7/2-2-2-2-2-2-2/1-2-2-2/1---|
a--4-4-4-4-4-4-4/7-7-7-7-7-7-7-7/2-2-2-2-2-2-2/1-2-2-2/1---|
e--4-4-4-4-4-4-4/7-7-7-7-7-7-7-7/2-2-2-2-2-2-2/1-2-2-2/1---|
   . . . . . .     . . . . . .     . . . . .
Guitar 2:
e------------------------------------------------|
b------------------------------------------------|
g--6-6-6-6-6-9-9-9-9-9-8-8-8-8-8-13-13-13-13-13--|
d--4-4-4-4-4-7-7-7-7-7-6-6-6-6-6-11-11-11-11-11--|
a------------------------------------------------|
e------------------------------------------------|

Guitar 1: bridge
e-----------------9-----------------9-|
b---------------7-----------------7---|
g-------------7-----------------7-----|
d--0-0-0-0-0---------0-0-0-0-0--------|
a--0-0-0-0-0---------0-0-0-0-0--------|
e--0-0-0-0-0---------0-0-0-0-0--------|
   . . . . .         . . . . .
Guitar 2:
e------------------------------------------------------|
b---------------0-0-0-0-0-0----------------0-0-0-0-0-0-|
g---------------7-7-7-7-7-7----------------7-7-7-7-7-7-|
d--0-0-0-0-0-----------------0-0-0-0-0-0---------------|
a--0-0-0-0-0-----------------0-0-0-0-0-0---------------|
e--0-0-0-0-0-----------------0-0-0-0-0-0---------------|
   . . . . .                 . . . . . .
                               keep pushing waterrr
Guitar 1:
e----------------------------------------------------------|
b----------------------------------------------------------|
g----------------------------------------------------------|
d--4-4-4-4-4-4-4/7-7-7-7-7-7-7-7/2-2-2-2-2-2-2/1-2-2-2/1---|
a--4-4-4-4-4-4-4/7-7-7-7-7-7-7-7/2-2-2-2-2-2-2/1-2-2-2/1---|
e--4-4-4-4-4-4-4/7-7-7-7-7-7-7-7/2-2-2-2-2-2-2/1-2-2-2/1---|
   . . . . . .     . . . . . .     . . . . .
Guitar 2:
e------------------------------------------------|
b------------------------------------------------|
g--6-6-6-6-6-9-9-9-9-9-8-8-8-8-8-13-13-13-13-13--|
d--4-4-4-4-4-7-7-7-7-7-6-6-6-6-6-11-11-11-11-11--|
a------------------------------------------------|
e------------------------------------------------|

Guitar 1: bridge
e--------------9-----------------9--|
b------------7-----------------7----|
g----------7-----------------7------|
d--0-0-0-----------0-0-0-0-0--------|
a--0-0-0-----------0-0-0-0-0--------|
e--0-0-0-----------0-0-0-0-0--------|
   . . .           . . . . .
Guitar 2:
e------------------------------------------------------|
b------------0-0-0-0-0-0----------------0-0-0-0-0-0----|
g------------7-7-7-7-7-7----------------7-7-7-7-7-7----|
d--0-0-0-------------------0-0-0-0-0-0-----------------|
a--0-0-0-------------------0-0-0-0-0-0-----------------|
e--0-0-0-------------------0-0-0-0-0-0-----------------|
   . . .                   . . . . . .
               come come  keep pushing wwaater
Guitar 1:
e-------------------------------------------|
b-------------------------------------------|
g-------------------------------------------|
d--4-4-4-4-4-4-4/7-7-7-7-7-7-7-7-7-7-7-7----|
a--4-4-4-4-4-4-4/7-7-7-7-7-7-7-7-7-7-7-7----|
e--4-4-4-4-4-4-4/7-7-7-7-7-7-7-7-7-7-7-7----|
   . . . . . .     . . . . . .
Guitar 2:
e------------------------------|
b------------------------------|
g--6-6-6-6-6-9-9-9-9-9-7-7-7---|
d--4-4-4-4-4-7-7-7-7-7-7-7-7---|
a------------------------------|
e------------------------------|

Guitar 1 :Chorus II
e-----------------------------------------------------------------|
b-----------------------------------------------------------------|
g---------------------------------------------------777777-999999-|
d----------44-4-4------------44-4-4-----------------777777-999999-|
a------------------------------------44-4-4-44-4-4--555555-777777-|
e---00-0-0------------00-0-0---------44-4-4-44-4-4----------------|
Guitar 2:
e----------------------10--------------------------------12---------|
b------------------------------------14--------14----14------14-----|
g--9-11-9*--9-11-9-11-----11-9----11----11--11----11------------11--|
d-------------------------------------------------------------------|
a-------------------------------------------------------------------|
e-------------------------------------------------------------------|

    yyyeeeaaaa--hh!  this house is oonn fffiiirrreeerrereaaaa!!!!

Guitar 1 :Chorus
e-----------------------------------------------------------------|
b-----------------------------------------------------------------|
g---------------------------------------------------777777-999999-|
d----------44-4-4------------44-4-4-----------------777777-999999-|
a------------------------------------44-4-4-44-4-4--555555-777777-|
e---00-0-0------------00-0-0---------44-4-4-44-4-4----------------|
Guitar 2:
e----------------------10--------------------------------12---------|
b------------------------------------14--------14----14------14-----|
g--9-11-9*--9-11-9-11-----11-9----11----11--11----11------------11--|
d-------------------------------------------------------------------|
a-------------------------------------------------------------------|
e-------------------------------------------------------------------|

     yyeyeaaaauuuhhh  leettss buurn it like u want love
Guitar 1 :Chorus II
e-----------------------------------------------------------------|
b-----------------------------------------------------------------|
g---------------------------------------------------777777-999999-|
d----------44-4-4------------44-4-4-----------------777777-999999-|
a------------------------------------44-4-4-44-4-4--555555-777777-|
e---00-0-0------------00-0-0---------44-4-4-44-4-4----------------|
Guitar 2:
e----------------------10--------------------------------------12---------|
b------------------------------------14--------------14----14------14-----|
g--9-11-9*--9-11-9-11-----11-9----11----11-11^12--11----11------------11--|
d-------------------------------------------------------------------------|
a-------------------------------------------------------------------------|
e-------------------------------------------------------------------------|

    redd flamees  watch it burn sloowww
Guitar 1 :Chorus
e-----------------------------------------------------------------|
b-----------------------------------------------------------------|
g---------------------------------------------------777777-999999-|
d----------44-4-4------------44-4-4-----------------777777-999999-|
a------------------------------------44-4-4-44-4-4--555555-777777-|
e---00-0-0------------00-0-0---------44-4-4-44-4-4----------------|
Guitar 2:
e----------------------10---------------------------------------|
b------------------------------------14--------14----15-14----------|
g--9-11-9~--9-11-9-11-----11-9----11----11--11----11--------------|
d-----------------------------------------------------------------|
a-----------------------------------------------------------------|
e-----------------------------------------------------------------|

  come waterr  too ppuutt ouutt thiiss  flllaammmeee...yyeeaaaa

Guitar 1 :Chorus III
e-----------------------------------------------------------------|
b-----------------------------------------------------------------|
g---------------------------------------------------777777-999999-|
d----------44-4-4------------44-4-4-----------------777777-999999-|
a------------------------------------44-4-4-44-4-4--555555-777777-|
e---00-0-0------------00-0-0---------44-4-4-44-4-4----------------|
Guitar 2:
e--
b--
g--
d--
a--
e--

    yyyeeeaaaa--hh!  this house is oonn fffiiirrreeerrereaaaa!!!!

Guitar 1 :Chorus
e-----------------------------------------------------------------|
b-----------------------------------------------------------------|
g---------------------------------------------------777777-999999-|
d----------44-4-4------------44-4-4-----------------777777-999999-|
a------------------------------------44-4-4-44-4-4--555555-777777-|
e---00-0-0------------00-0-0---------44-4-4-44-4-4----------------|
     yyeyeaaaauuuhhh  leettss buurn it like u want love
Guitar 1 :Chorus III
e-----------------------------------------------------------------|
b-----------------------------------------------------------------|
g---------------------------------------------------777777-999999-|
d----------44-4-4------------44-4-4-----------------777777-999999-|
a------------------------------------44-4-4-44-4-4--555555-777777-|
e---00-0-0------------00-0-0---------44-4-4-44-4-4----------------|
    redd flamees  watch it burn sloowww
Guitar 1 :Chorus
e-----------------------------------------------------------------|
b-----------------------------------------------------------------|
g---------------------------------------------------777777-999999-|
d----------44-4-4------------44-4-4-----------------777777-999999-|
a------------------------------------44-4-4-44-4-4--555555-777777-|
e---00-0-0------------00-0-0---------44-4-4-44-4-4----------------|
  come waterr  too ppuutt ouutt thiiss  flllaammmeee...

Guitar 1: outro
e----------------------------------------------------|
b----------------------------------------------------|
g----------------------------------------------------|
d--0~(hold)--4~(hold)--2~(hold)-----2(hammer on)4~~~-|
a--0~--------4~--------2~-(pull-off)0~---------------|
e--0~--------4~--------2~-(pull-off)0~---------------|
Добавлено: 22.05.2012
Вам также может быть интересно:
Другие материалы по этой песне:
  • Аккорды и текст

Страница создана 22.05.2012
http://primanota.ru/doosu/louisiana-house-fire-mid-1950s-chords.htm
Привет, Гость.
Предлагаем пройти революционный курс по гитаре.
Подарок от PrimaNota.Ru, забирай!