PrimaNota.ru - самый крупный в мире бесплатный архив песенных текстов, аккордов, табулатур и нот


Doors - Light My Fire Live - таба, видео

Регистрация Запомнить меня
Войти через:  Facebook Google Twitter Vk Yandex Mail.ru

Doors - Light My Fire Live - таба, видео

Печатать
Просмотров: 234
Уроки эстрадного вокала в Санкт-Петербурге
                    LIGHT MY FIRE ("ALIVE SHE CRIED")
                                   Guitar Solo

Written by Martin Völkner
Level: Intermediate
Tuning: Standart

As this is some jazzy-psychodelic-fingertyped Solo-Thing some Sections
might not be accurate...

I marked these Sections with:  !!!

 4/4  (Am7 Bm7)


|-3-5-7--8-7h8p7p5---5----7h8p7p5---5-------------------|
|------------------8----8---------8----5-7h8p7p5---5----|
|------------------------------------------------7------|
|-------------------------------------------------------|
|-------------------------------------------------------|
|-------------------------------------------------------|


|-3-5-7--8-7h8p7p5-----------------------------------------------|
|------------------7h8p7p5---5-7-8p7h8p7p5---5-7--5-8p7p5---5----|
|--------------------------7---------------7--------------7------|
|----------------------------------------------------------------|
|----------------------------------------------------------------|
|----------------------------------------------------------------|


|-------------5h6h7--------------5h6h7-7p6p5---7p6p5----7p6p5------|
|-------5h6h7--------------5h6h7-------------7-------7--------7----|
|-5h6h7--------------5h6h7-----------------------------------------|
|------------------------------------------------------------------|
|------------------------------------------------------------------|
|------------------------------------------------------------------|


|-7p6p5---7p6p5----7p6p5----5-8p7p5----8p7p5---8p7p5----8p7p5-----|
|-------7-------7--------7----------------------------------------|
|-----------------------------------7--------7-------7--------7---|
|-----------------------------------------------------------------|
|-----------------------------------------------------------------|
|-----------------------------------------------------------------|


                                                         ~
|-------------5h6h7-------------------------------------------|
|-------5h6h7-------5-7-5-8-5-7-7p6p5--------------------6----|
|-5h6h7-----------------------------------5--7p6p5S4---4------|
|-------------------------------------7--------------7--------|
|-------------------------------------------------------------|
|-------------------------------------------------------------|


|----------------------------------------5--------------|
|-8-6-5------------------------------5-5----7-5---------|
|-------6--4-5-7--5h7p5p4---4--7-7b9------------7--5----|
|-------------------------7-----------------------------|
|-------------------------------------------------------|
|-------------------------------------------------------|


|----------------------------------------------------------------------|
|-----------------------5-------5-7-7b9r7-5-7-5----5-----7b9-7---5-----|
|-2-2-2-2-2-2-2---5S7-7---5---5-----------------7----7-5-------7---7---|
|---------------------------7------------------------------------------|
|----------------------------------------------------------------------|
|----------------------------------------------------------------------|

			      !!!
                               ~~~
|------------------------------0-----------------------|
|---5-7b8-7-5-7-5---5------5-7-5b6---------5-----------|
|-5---------------7---7--5-----------5S7-7---7---------|
|----------------------------------------------7--7----|
|------------------------------------------------------|
|------------------------------------------------------|

				           soft picking but fast
                                           ~~~~~~~~~~~~~~~~~~~~~~
|-5-----------5--7-8-10-8-7-5---------------------------------------|
|---8-5------------------------------------5-7-5---5-7-5---5-7-5----|
|-------7--5-------------------7pb9r9----5-------5-------5----------|
|-------------------------------------7-----------------------------|
|-------------------------------------------------------------------|
|-------------------------------------------------------------------|


                                       ~
|-------------------------------------------|
|-----5-5-5-----5-5-------------------------|
|-7b9-------7b9-----4-7--5-7-5--------------|
|------------------------------7-5----------|
|----------------------------------5-5-3----|
|-------------------------------------------|


|-12-13h15p13p12----------------------------|
|----------------13h15p13p12----------------|
|----------------------------14h16p14p12----|
|----------------------------------------14-|
|-------------------------------------------|
|-------------------------------------------|


|-12-13h15p13p12------------------------------------------|
|----------------13h15p13p12------------------------------|
|----------------------------14--------12h14p12h14p12h14--|
|--------------------------------12h14--------------------|
|---------------------------------------------------------|
|---------------------------------------------------------|

							     !!!
|-17-17-17-17--17-17-17-17--17-17-17-17-17-17-----------------------------------|
|-17-17-17-17--17-17-17-17--17-17-17-17-17-17-----------------------------------|
|----------------------------------------------------14-16-14-16-14-16-14-16----|
|----------------------------------------------------14S16S14S16S14S16S14S16----|
|-------------------------------------------------------------------------------|
|-------------------------------------------------------------------------------|

										   !!!
|-------17--17h19-17h19-17-----20----19----17------------------20----19----17--------------------|
|----17------------------------------------------20----19------------------------20----19----17--|
|-17------------------------17----17----17----17----17------17----17----17----17----17----15-----|
|------------------------------------------------------------------------------------------------|
|------------------------------------------------------------------------------------------------|
|------------------------------------------------------------------------------------------------|

		!!!				                                              ~~
|-----------------------------20----19----17------------------------------------------------|
|----16----15----14----13-----------------------20------------------------------------------|
|-14----13----12----11-----17----17----17----17----17--17b19--17b19-17b19-17b19--17b19r=15--|
|-------------------------------------------------------------------------------------------|
|-------------------------------------------------------------------------------------------|
|-------------------------------------------------------------------------------------------|

--------------------|
--------------------|
-17-15--------------|
-------17-15-17-----|
--------------------|
--------------------|
Добавлено: 29.04.2012
Другие материалы по этой песне:
  • Аккорды и текст

Страница создана 29.04.2012
http://primanota.ru/doors/light-my-fire-live-chords.htm
Привет, Гость.
Предлагаем пройти революционный курс по гитаре.
Подарок от PrimaNota.Ru, забирай!