PrimaNota.ru - самый крупный в мире бесплатный архив песенных текстов, аккордов, табулатур и нот


Doors - Fiest Of Friends - аккорды и текст, таба, видео

Регистрация Запомнить меня
Войти через:  Facebook Google Twitter Vk Yandex Mail.ru

Doors - Fiest Of Friends - аккорды и текст, таба, видео

Печатать
Просмотров: 127
Fiest Of Friends
Doors
E|--------------------------------------------------------------------------|
B|--------------------------------------------------------------------------|
G|--------------------------------------------------------------------------|
D|--------------------------------------------------------------------------|
A|-1/3----------------------------------------------3---------------------3-|
E|---------3---5----6-------------------5----6------------------5----6------|

E|--------------------------------------------------------------------|
B|--------------------------------------------------------------------|
G|--------------------------------------------------------------------|
D|--------------------------------------------------------------------|
A|--------------------------------------------------------------------|
E|--------3-----5-----6------------2-----3---5---------------3--2---3-|

E|------15^------------------------------------------------------------------|
B|-------------------17---15---------------13-------15---15^--- 13-----------|
G|-----------------------------17--15--15-----15---------------------15---14-|
D|---------------------------------------------------------------------------|
A|---------------------------------------------------------------------------|
E|---------------------------------------------------------------------------|

E|---------------------------------------------------------------------------|
B|---------------------------------------------------------------------------|
G|---------------------------------------------------------------------------|
D|---------------------------------------------------------------------------|
A|--------------3------------------------------------------------------------|
E|----5----6-----------------3----5---6-----------2---3----5--------3--2---3-|

E|---10---------8----------------------------------------11-----------10---8-|
B|------------------11---10-------8-------7-8-7------------------------------|
G|---------------------------------------------------------------------------|
D|---------------------------------------------------------------------------|
A|---------------------------------------------------------------------------|
E|---------------------------------------------------------------------------|

E|------------------------------------------15-------13---15-----11----13-|
B|--11----10-------10-------8-10-8----------------------------------------|
G|------------------------------------------------------------------------|
D|------------------------------------------------------------------------|
A|------------------------------------------------------------------------|
E|------------------------------------------------------------------------|

E|--10---11--------13------11--13-----10--11-----8----10---10/11-------10-11-|
B|---------------------------------------------------------------------------|
G|---------------------------------------------------------------------------|
D|---------------------------------------------------------------------------|
A|---------------------------------------------------------------------------|
E|---------------------------------------------------------------------------|

E|-8--10------6---8------------------------------10---------11-|
B|----------------------10--11----13---11--10------------------|
G|-------------------------------------------------------------|
D|-------------------------------------------------------------|
A|-------------------------------------------------------------|
E|-------------------------------------------------------------|
SLIDE FINGER BACK AND FOURTH
E|-10\11/10/11\10/11\10/11\10/11------15---17--18---17--15--14--15---13-|
B|----------------------------------------------------------------------|
G|----------------------------------------------------------------------|
D|----------------------------------------------------------------------|
A|----------------------------------------------------------------------|
E|----------------------------------------------------------------------|

E|--13---15----17----15---13----12------------------15--------------------15-|
B|-----------------------------------13----16---------15-------12-----15-----|
G|---------------------------------------------------------------------------|
D|---------------------------------------------------------------------------|
A|---------------------------------------------------------------------------|
E|---------------------------------------------------------------------------|

E|--------------------------------------------------------------------|
B|--13-----13---15--16---15---13----11----11---13---15---13---11---10-|
G|--------------------------------------------------------------------|
D|--------------------------------------------------------------------|
A|--------------------------------------------------------------------|
E|--------------------------------------------------------------------|

E|---------------------------------------------------|
B|--10--11----13---------11----------10------------8-|
G|---------------------------------------------------|
D|---------------------------------------------------|
A|---------------------------------------------------|
E|---------------------------------------------------|
Добавлено: 18.10.2013
Другие материалы по этой песне:
  • Аккорды и текст

Страница создана 17.09.2013
http://primanota.ru/doors/fiest-of-friends-chords.htm
Привет, Гость.
Предлагаем пройти революционный курс по гитаре.
Подарок от PrimaNota.Ru, забирай!