PrimaNota.ru - самый крупный в мире бесплатный архив песенных текстов, аккордов, табулатур и нот


Doomtree - Fresh New Trash - бас-таба, видео

Регистрация Запомнить меня
Войти через:  Facebook Google Twitter Vk Yandex Mail.ru

Doomtree - Fresh New Trash - бас-таба, видео

Печатать
Просмотров: 115
main part-
g-------------5-6-7---------|------------------------|
d-8--7-8-6-7----------7-----|-8--7-8-7-7-------------|
a-----------------------4-5-|--------------8----5----|
e---------------------------|-----------------5------|

solo part-
g------------------------------|---------------------------|
d---------6--------------------|---------6-----------------|
a-5-5-8-5----8-5---5-4--4-3-0--|-5-5-8-5----8-5--5-4--4-5--|
e------------------------------|---------------------------|

play the main part for most of the song repeating. listen to the song for the rhythm. 
hopefully this isn't to far off from what it really is, my ear says its pretty close.
from their album- no kings
http://www.doomtree.net/
Добавлено: 17.10.2013
Другие материалы по этой песне:
  • Аккорды и текст

Страница создана 17.10.2013
http://primanota.ru/doomtree/fresh-new-trash-chords.htm
Привет, Гость.
Предлагаем пройти революционный курс по гитаре.
Подарок от PrimaNota.Ru, забирай!