PrimaNota.ru - самый крупный в мире бесплатный архив песенных текстов, аккордов, табулатур и нот


Doomriders - Come Alive - таба, видео

Регистрация Запомнить меня
Войти через:  Facebook Google Twitter Vk Yandex Mail.ru

Doomriders - Come Alive - таба, видео

Печатать
Просмотров: 197
This is my first tab so apologies if it isn't great!
I worked this out by ear and uploaded a cover of it to Youtube. I had a few 
requests for me to make a tab so I thought I would give it a go.
It's pretty much correct I think, there are a few guitar licks or very slight 
variations that I didn't bother putting in, but these are all the main parts.
There are two guitarists and some of these riffs are played over each other and 
harmonised at different times, but this is the order I play the riffs in my video.
 
Please feel free to check it out and like and subscribe if you enjoy! Thanks :)

http://youtu.be/p-VxL5QFM28



The tuning is D Standard

D, G, C, F, A, D


d|--000000000--0--0-0000--0--0--0--0--0--0--0--0--0--0--0--0--0--0--0--0--0--00000000|
A|--8888888810 10 1088810 10/12 12 12 12 12 12 12 12 12 12 12 12 12 12 12 12\88888888|
F|-----------------------------------------------------------------------------------|
C|-----------------------------------------------------------------------------------|
G|-----------------------------------------------------------------------------------|
D|-----------------------------------------------------------------------------------|

-0--0--0--000-0--0----------000000-------000000-----|
 10 10 10 888/10 10 11h10p0 777777 8h7p0 555555-----|
----------------------------------------------------|
----------------------------------------------------|
----------------------------------------------------|
----------------------------------------------------| X 4


d|-------------------------------------------------------------------------|
A|-------------------------------------------------------------------------|
F|-------------------------------------------------------------------------|
C|--55555555777555772222222222222222555555557775557799999999999999999------|
G|--xxxxxxxxxxxxxxxxxxxxxxxxxxxxxxxxxxxxxxxxxxxxxxxx777777777777777xx------|
D|--33333333555333550000000000000000333333335553335500000000000000077\\\\--| X 2


d|--0000000000000000--------------------------------|
A|--0455555555555555--------------------------------|
F|--------------------------------------------------|
C|--------------------------------------------------|
G|--------------------------------------------------|
D|--------------------------------------------------| X 8


d|--------------------------------------------------|
A|--------------------------------------------------|
F|--------------------------------------------------|
C|--5-5--7-7--9-------------------------------------|
G|--5-5--7-7--7--7h8p7-7h8p7-7h8p7------------------|
D|--3-3--5-5--0-------------------------------------| X 2


This next bit is two different guitar parts I think, but I pluck this put with my 
fingers to try and replicate it on my own. 
You can see it in my video.

d|----------------------------------------------------|
A|----------------------------------------------------|
F|--9--9--9--9--9--9--9---9----9--9--9--9--9--9--9--9-|
C|--------------7--7--7h9p7---------------------------|
G|--10 10 10 10------------10--7--7--7--7--7--7--7--7-|
D|----------------------------------------------------| X 4


d|----------------------------------------------------------------------|
A|----------------------------------------------------------------------|
F|----------------------------------------------------------------------|
C|-----------4--2-0----------4-2/4\2--p0----------4--2-0-------------9--|
G|-------------------------------------------------------------------7--|
D|--3--5--0---------3--5--0--------------3--5--0----------3--5--0----0--|


d|---------------------------------------------------------------------------|
A|-------------------------------------------------------------------------- |
F|---------------------------------------------------------------------------|
C|--7/9--7\---4--2-0--7/9--7\---4--2/4\2-p0-7/9--7\---4--2-0--7/9--7\-----9--|
G|------------------------------------------------------------------------7--|
D|---------7-----------------7---------------------7-----------------7----0--| X 3 


d|----------------------------------------------------------------------------|
A|----------------------------------------------------------------------------|
F|----------------------------------------------------------------------------|
C|--7/9--7\---4--2-0--7/9--7\---4--2/4\2-p0-7/9--7\---4--2-0--7/9--7\--4--2/--|
G|----------------------------------------------------------------------------|
D|---------7-----------------7---------------------7-----------------7--------|


d|--------------------------------------------------------------------------------|
A|--------------------------------------------------------------------------------|
F|-----7h9----7h9----7-----7h9----7h9----7-----7h9----7h9----7-----7h9----7h9^10--|
C|--7h9---x7h9---x7h9---7h9---x7h9---x7h9---7h9---x7h9---x7h9---7h9---x7h9--------|
G|--------------------------------------------------------------------------------|
D|--------------------------------------------------------------------------------|


d|-----------------------------------------------------00--|
A|-----------------------------------------------------00--|
F|---------------------------------------------------------|
C|--9----99--7--9--10---1010-9--5--7----77--5--7--2--------|
G|--7----77--5--9--10---1010-9--5--7----77--5--7--2--------|
D|--0----00-----7--8----8-8--7--3--5----55--3--5--0--------|

-----------------------------------------------------0-----|
-----------------------------------------------------5-----|
-----------------------------------------------------4-----|
--9----99--7--9--10---1010-9--5--7----77--5--7--2----x-----|
--7----77--5--9--10---1010-9--5--7----77--5--7--2----2-----|
--0----00-----7--8----8-8--7--3--5----55--3--5--0----------|
Добавлено: 21.11.2013
Другие материалы по этой песне:
  • Аккорды и текст

Страница создана 21.11.2013
http://primanota.ru/doomriders/come-alive-chords.htm
Привет, Гость.
Предлагаем пройти революционный курс по гитаре.
Подарок от PrimaNota.Ru, забирай!