PrimaNota.ru - самый крупный в мире бесплатный архив песенных текстов, аккордов, табулатур и нот


Doom - Lust For Power - таба, видео

Регистрация Запомнить меня
Войти через:  Facebook Google Twitter Vk Yandex Mail.ru

Doom - Lust For Power - таба, видео

Печатать
Просмотров: 150
Palm muted notes are in "( )"

EPIC Intro w/ Drum Roll

e-----------------------------------|
B-----------------------------------|
G-----------------------------------|
D-6--8-5--6--8-5--6--8-5--6--8-5--3-|
A-6--8-5--6--8-5--6--8-5--6--8-5--3-|
D-6--8-5--6--8-5--6--8-5--6--8-5--3-|

Verse

e-------------------------------------------------|
B-------------------------------------------------|
G-------------------------------------------------|
D-3-3-3-3-3-3-3-3-3-3-3-3-3/6-6-6-6-6-6-8h9--8h9--|
A-3-3-3-3-3-3-3-3-3-3-3-3-3/6-6-6-6-6-6-8h9--8h9--|
D-3-3-3-3-3-3-3-3-3-3-3-3-3/6-6-6-6-6-6-8h9--8h9--| 4X

Chorus

e---------------------------------------------------|
B---------------------------------------------------|
G---------------------------------------------------|
D-6-6-6-6-6-6-6-6-6-6/8-8-8/5-5-5-5-5-5-5-5-5-5-5-5-|
A-6-6-6-6-6-6-6-6-6-6/8-8-8/5-5-5-5-5-5-5-5-5-5-5-5-|
D-6-6-6-6-6-6-6-6-6-6/8-8-8/5-5-5-5-5-5-5-5-5-5-5-5-| 4X

Breakdown (Palm Muted)

e-------------------|
B-------------------|
G-------------------|
D-(6-5-4-3-6-5-4-3)-|
A-(6-5-4-3-6-5-4-3)-|
D-(6-5-4-3-6-5-4-3)-| 1X

Verse

e-------------------------------------------------|
B-------------------------------------------------|
G-------------------------------------------------|
D-3-3-3-3-3-3-3-3-3-3-3-3-3/6-6-6-6-6-6-8h9--8h9--|
A-3-3-3-3-3-3-3-3-3-3-3-3-3/6-6-6-6-6-6-8h9--8h9--|
D-3-3-3-3-3-3-3-3-3-3-3-3-3/6-6-6-6-6-6-8h9--8h9--| 4X

Chorus

e---------------------------------------------------|
B---------------------------------------------------|
G---------------------------------------------------|
D-6-6-6-6-6-6-6-6-6-6/8-8-8/5-5-5-5-5-5-5-5-5-5-5-5-|
A-6-6-6-6-6-6-6-6-6-6/8-8-8/5-5-5-5-5-5-5-5-5-5-5-5-|
D-6-6-6-6-6-6-6-6-6-6/8-8-8/5-5-5-5-5-5-5-5-5-5-5-5-| 4X

Breakdown

e-------------------------------------------|
B-------------------------------------------|
G-------------------------------------------|
D-(6-5-4-3-6-5-4-3)-3-3-3-3-3-3-3-3-3-3-3-3-|
A-(6-5-4-3-6-5-4-3)-3-3-3-3-3-3-3-3-3-3-3-3-|
D-(6-5-4-3-6-5-4-3)-3-3-3-3-3-3-3-3-3-3-3-3-| 4X

e--------------------|
B--------------------|
G--------------------|
D-333--(Pick Scrape)-|
A-333--(Pick Scrape)-|
D-333--(Pick Scrape)-|

Verse

e-------------------------------------------------|
B-------------------------------------------------|
G-------------------------------------------------|
D-3-3-3-3-3-3-3-3-3-3-3-3-3/6-6-6-6-6-6-8h9--8h9--|
A-3-3-3-3-3-3-3-3-3-3-3-3-3/6-6-6-6-6-6-8h9--8h9--|
D-3-3-3-3-3-3-3-3-3-3-3-3-3/6-6-6-6-6-6-8h9--8h9--| 4X

Chorus

e---------------------------------------------------|
B---------------------------------------------------|
G---------------------------------------------------|
D-6-6-6-6-6-6-6-6-6-6/8-8-8/5-5-5-5-5-5-5-5-5-5-5-5-|
A-6-6-6-6-6-6-6-6-6-6/8-8-8/5-5-5-5-5-5-5-5-5-5-5-5-|
D-6-6-6-6-6-6-6-6-6-6/8-8-8/5-5-5-5-5-5-5-5-5-5-5-5-| 4X

Breakdown

e----------------------|
B----------------------|
G----------------------|
D-(6-5-4-3-6-5-4-3)-3--|
A-(6-5-4-3-6-5-4-3)-3--|
D-(6-5-4-3-6-5-4-3)-3--| 1X
Добавлено: 02.03.2012
Другие материалы по этой песне:
  • Аккорды и текст

Страница создана 02.03.2012
http://primanota.ru/doom/lust-for-power-chords.htm
Привет, Гость.
Предлагаем пройти революционный курс по гитаре.
Подарок от PrimaNota.Ru, забирай!