PrimaNota.ru - самый крупный в мире бесплатный архив песенных текстов, аккордов, табулатур и нот


Doom - Episode 1, Map 1 - текст песни, видео

Регистрация Запомнить меня
Войти через:  Facebook Google Twitter Vk Yandex Mail.ru

Doom - Episode 1, Map 1 - текст песни, видео

Печатать
Просмотров: 274
Symbols used:
pm... = palm mute
h = hammer-on
p = pull-off
/ = slide up

Standard tuning: (low to high) EADGBe


Intro:
======

G1|--------------------------------------------------------------|
U |--------------------------------------------------------------|
I |--------------------------------------------------------------|
T |--------------------------------------------------------------|
A |-----7-----5-----3-----1-----2h3-----7-----5-----3-----1------|
R |-0-0---0-0---0-0---0-0---0-0-----0-0---0-0---0-0---0-0--------|  x2
pm..   . .   . .   . .   . .     . .   . .   . .   . let ring


Riff A:
=======

G1|--------------------------------------------------------------
U |--------------------------------------------------------------
I |--------------------------------------------------------------
T |--------------------------------------------------------------
A |-----7-----5-----3-----1-----2h3-----7-----5-----3-----1------
R |-0-0---0-0---0-0---0-0---0-0-----0-0---0-0---0-0---0-0--------
|pm..   . .   . .   . .   . .     . .   . .   . .   . let ring
|
G2|--------------------------------------------------------------
U |--------------------------------------------------------------
I |--------------------------------------------------------------
T |--------------------------------------------------------------
A |-----7-----5-----3-----1-----2h3-----7-----5-----3-----1------
R |-0-0---0-0---0-0---0-0---0-0-----0-0---0-0---0-0---0-0--------
pm..   . .   . .   . .   . .     . .   . .   . .   . let ring


G1|-------------------------------------------------
U |-------------------------------------------------
I |-------------------------------------------------
T |-------------------------------------------------
A |-----7-----5-----3-----1-----2h3-----7-----5-----
R |-0-0---0-0---0-0---0-0---0-0-----0-0---0-0---0-0-
|pm..   . .   . .   . .   . .     . .   . .   . .
|
G2|-------------------------------------------------
U |-------------------------------------------------
I |-------------------------------------------------
T |-------------------------------------------------
A |-----7-----5-----3-----1-----2h3-----7-----5-----
R |-0-0---0-0---0-0---0-0---0-0-----0-0---0-0---0-0-
pm..   . .   . .   . .   . .     . .   . .   . .

(end of Riff A)


Impossible fill #1:
===================

(Pretend the notes line up for both guitars.)

G1|---------2p0-------0h2h3p2p0-----
U |-4p1p0h4-----4p0h4-----------4p0-
I |---------------------------------
T |---------------------------------
A |---------------------------------
R |---------------------------------
|
G2|--------------------------------------
U |----------10p8-------8h10h12p10p8-----
I |-11p9p8h11----11p8h11------------11p8-
T |--------------------------------------
A |--------------------------------------
R |--------------------------------------

Play Riff A again.

Play Impossible fill #2 (not tabbed).

Riff B:
=======

G1|--------------------------------------------------------------
U |--------------------------------------------------------------
I |--------------------------------------------------------------
T |-----7-----5-----3-----1-----2h3-----7-----5-----3-----1------
A |-0-0---0-0---0-0---0-0---0-0-----0-0---0-0---0-0---0-0--------
R |--------------------------------------------------------------
|pm..   . .   . .   . .   . .     . .   . .   . .   . let ring
|
G2|--------------------------------------------------------------
U |--------------------------------------------------------------
I |--------------------------------------------------------------
T |-----7-----5-----3-----1-----2h3-----7-----5-----3-----1------
A |-0-0---0-0---0-0---0-0---0-0-----0-0---0-0---0-0---0-0--------
R |--------------------------------------------------------------
pm..   . .   . .   . .   . .     . .   . .   . .   . let ring


G1|-------------------------------------------------
U |-------------------------------------------------
I |-------------------------------------------------
T |-----7-----5-----3-----1-----2h3-----7-----5-----
A |-0-0---0-0---0-0---0-0---0-0-----0-0---0-0---0-0-
R |-------------------------------------------------
|pm..   . .   . .   . .   . .     . .   . .   . .
|
G2|-------------------------------------------------
U |-------------------------------------------------
I |-------------------------------------------------
T |-----7-----5-----3-----1-----2h3-----7-----5-----
A |-0-0---0-0---0-0---0-0---0-0-----0-0---0-0---0-0-
R |-------------------------------------------------
pm..   . .   . .   . .   . .     . .   . .   . .

(end of Riff B)


Play Impossible fill #3 (not tabbed).

Play Intro (both guitars this time).

Riff C:
=======

G1|-------------------------------------------------------------
U |-------------------------------------------------------------
I |-----6-----4-------------------------4-----2-----------------
T |-----------------7-----5-----6h7-----------------5-----3-----
A |-4-4---4-4---4-4---4-4---4-4-----2-2---2-2---2-2---1-0-------
R |-------------------------------------------------------------
|pm..   . .   . .   . .   . .     . .   . .   . .   . let ring
|
G2|-------------------------------------------------------------
U |-------------------------------------------------------------
I |-----6-----4-------------------------4-----2-----------------
T |-----------------7-----5-----6h7-----------------5-----3-----
A |-4-4---4-4---4-4---4-4---4-4-----2-2---2-2---2-2---1-0-------
R |-------------------------------------------------------------
pm..   . .   . .   . .   . .     . .   . .   . .   . let ring

(end of Riff C.)


Play Riff A.

Play Impossible fill #4 (not tabbed.)

Play Riff A.

Play Impossible fill #5 (not tabbed.)

Riff AA:
========

G1|---------------------------------------------------------------
U |---------------------------------------------------------------
I |---------------------------------------------------------------
T |---------------------------------------------------------------
A |-----10-----9-----6-----5-----5h6-----10-----9-----7-----4-----
R |-0-0----0-0---0-0---0-0---0-0-----0-0----0-0---0-0---0-0-------
|pm..    . .   . .   . .   . .     . .    . .   . .   . let ring
|
G2|---------------------------------------------------------------
U |---------------------------------------------------------------
I |-- [ Plays regular Riff A ] -----------------------------------
T |---------------------------------------------------------------
A |---------------------------------------------------------------
R |---------------------------------------------------------------


G1|---------------------------------------------------
U |---------------------------------------------------
I |---------------------------------------------------
T |---------------------------------------------------
A |-----10-----9-----6-----5-----5h6-----10-----9-----
R |-0-0----0-0---0-0---0-0---0-0-----0-0----0-0---0-0-
|pm..    . .   . .   . .   . .     . .    . .   . .
|
G2|---------------------------------------------------
U |---------------------------------------------------
I |-- [ still playing regular Riff A ] ---------------
T |---------------------------------------------------
A |---------------------------------------------------
R |---------------------------------------------------

(end of Riff AA)


Play Impossible fill #6 (not tabbed.)

Riff BB:
========

G1|---------------------------------------------------------------
U |---------------------------------------------------------------
I |---------------------------------------------------------------
T |-----10-----9-----6-----5-----5h7-----10-----9-----7-----5-----
A |-0-0----0-0---0-0---0-0---0-0-----0-0----0-0---0-0---0-0-------
R |---------------------------------------------------------------
|pm..    . .   . .   . .   . .     . .    . .   . .   . let ring
|
G2|---------------------------------------------------------------
U |---------------------------------------------------------------
I |-- [ Plays regular Riff B ] -----------------------------------
T |---------------------------------------------------------------
A |---------------------------------------------------------------
R |---------------------------------------------------------------


G1|---------------------------------------------------
U |---------------------------------------------------
I |---------------------------------------------------
T |-----10-----9-----6-----5-----5h7-----10-----9-----
A |-0-0----0-0---0-0---0-0---0-0-----0-0----0-0---0-0-
R |---------------------------------------------------
|pm..    . .   . .   . .   . .     . .    . .   . .
|
G2|---------------------------------------------------
U |---------------------------------------------------
I |-- [ Still playing regular Riff B ] ---------------
T |---------------------------------------------------
A |---------------------------------------------------
R |---------------------------------------------------

(end of Riff BB.)


Play Impossible riff #7 (not tabbed).

G1|---------------------------------------------------------------|
U |---------------------------------------------------------------|
I |---------------------------------------------------------------|
T |---------------------------------------------------------------|
A |-----10-----9-----6-----5-----5h6-----10-----9-----7-----4-----|
R |-0-0----0-0---0-0---0-0---0-0-----0-0----0-0---0-0---0-0-------|
|pm..    . .   . .   . .   . .     . .    . .   . .   . let ring|
|                                                               |
G2|---------------------------------------------------------------|
U |---------------------------------------------------------------|
I |-- [ Plays regular Riff A ] -----------------------------------|
T |---------------------------------------------------------------|
A |---------------------------------------------------------------|
R |---------------------------------------------------------------| x2


Riff CC:
========

G1|--------------------------------------------------------------------
U |--------------------------------------------------------------------
I |-----12-----11-----9----------------------11------9-----8-----------
T |-------------------------11-----11/14-------------------------------
A |--------------------------------------------------------------9-----
R |-9-9----9-9----9-9---9-9----9-9-------7-7-----7-7---7-7---6-5-------
|pm..    . .    . .   . .    . .       . .     . .   . .   . let ring
|
G2|--------------------------------------------------------------------
U |--------------------------------------------------------------------
I |-- [ Plays regular Riff C ] ----------------------------------------
T |--------------------------------------------------------------------
A |--------------------------------------------------------------------
R |--------------------------------------------------------------------

Play Riff AA.

Play Impossible riff #8 (not tabbed).

The end! Repeat as necessary.
Добавлено: 08.06.2012
Другие материалы по этой песне:
  • Текст (слова)

Страница создана 08.06.2012
http://primanota.ru/doom/episode-1-map-1-lyrics.htm
Привет, Гость.
Предлагаем пройти революционный курс по гитаре.
Подарок от PrimaNota.Ru, забирай!