PrimaNota.ru - самый крупный в мире бесплатный архив песенных текстов, аккордов, табулатур и нот


Doom Vs - Upon The Cataract - текст песни, таба, видео

Регистрация Запомнить меня
Войти через:  Facebook Google Twitter Vk Yandex Mail.ru

Doom Vs - Upon The Cataract - текст песни, таба, видео

Печатать
Просмотров: 78
Авторы: Johan Ericson

-------------------------------------------------------------------------------
                             Upon the Cataract - Doom:VS
-------------------------------------------------------------------------------
Tabbed by: CorVus_Doom
E-mail: derwahnsihn@mail.ru

Tuning: Drop C# (i'm not sure)

Main riff:

e|---------------------------------------------------------------------------|
B|---------------------------------------------------------------------------|
G|---------------------------------------------------------------------------|
D|---------------------------------------------------------------------------|
A|---0-1-----0-1---4---------------------------------------------------------|
D|-0-------0-----------------------------------------------------------------|
                                                                             |
"I can hear the water come rushing in..."                                    |
                                                                             |
e|---------------------------------------------------------------------------|
B|---------------------------------------------------------------------------|
G|-7-6---10-12--9-------------10-9-6-----7-----------------------------------|
D|-------------------7-8-5---------------------------------------------------|
A|---------------------------------------------------------------------------|
D|---------------------------------------------------------------------------|

Chorus:

e|---------------------------------------------------------------------------|
B|---------------------------------------------------------------------------|
G|---------------------------------------------------------------------------|
D|-0-----8--7--5-----5--7--0-----8--7--5----5--7--0--------------------------|
A|-0-----8--7--5-----5--7--0-----8--7--5----5--7--0--------------------------|
D|-0-----8--7--5-----5--7--0-----8--7--5----5--7--0-------------- -----------|
                                                                             |  
                                                                             |
e|---------------------------------------------------------------------------|
B|---------------------------------------------------------------------------|
G|-7-----10-9--------------------10-9-------7--9--7--------------------------|
D|-------------8-----8--10-7----------8--------------------------------------|
A|---------------------------------------------------------------------------|
D|---------------------------------------------------------------------------|

"It washes over me, like a disease..."

e|---------------------------------------------------------------------------|
B|---------------------------------------------------------------------------|
G|---------------------------------------------------------------------------|
D|---------------------------------------------------------------------------|
A|---------------------------------------------------------------------------|
D|-12-11---7-8---11---7-7---7-8-1---1-3-0------------------------------------|

"Down, down we go from here..."
This part is played with one open chord. You need to hear what rhytm is this. The solo is the same as
last riff, but in octave up.
e|---------------------------------------------------------------------------|
B|---------------------------------------------------------------------------|
G|---------------------------------------------------------------------------|
D|---------------------------------------------------------------------------|
A|-0----------------0--------------------------------------------------------|
D|-0-0-0-0-0-0-0-0--0-0-0-0-0-0-0-0------------------------------------------|
     . . . . . . .    . . . . . . .

SOLO MTHRFCKR

e|----------------------------------------------------------------------------------------------|
B|-15---15---15---13h15---------------------18-17-----------------------------------------------|
G|-17b--17b--17b--------14---12h14-15----15--------14-------------------------------------------|
D|-----------------------------------------------------14-15--------15-17-17b19r17-15-17--------|
A|---------------------------------------------------------------17-----------------------------|
D|----------------------------------------------------------------------------------------------|

e|-------------------12----12----12----12----12----12-----10----10----10----10------12----12/13-|
B|---18------17--------11----11----11----11----11----11-----11----11----11----11--11--11--------|
G|-15--15--15--15--------14----14----------14----14-----------12----12----------12------12------|
D|----------------------------------------------------------------------------------------------|
A|----------------------------------------------------------------------------------------------|
D|----------------------------------------------------------------------------------------------|


e|-13----13----13---13----13-10------10------10------10----12----------------|
B|---11----11----11---11-------11--11--11--11--11--11--11----10--------------|
G|-----14----14---------14-------12------12------12------12------------------|
D|---------------------------------------------------------------------------|
A|---------------------------------------------------------------------------|
D|---------------------------------------------------------------------------|

That's all. The song is very beautiful and easy.
************************************

| /   slide up
| \   slide down
| h   hammer-on
| p   pull-off
| ~   vibrato
| +   harmonic
| x   Mute note
| b   Bend
| pb  Pre-bend
| br  Bend release
| pbr Pre-bend release
| brb Bend release bend

************************************
Добавлено: 21.05.2016
Другие материалы по этой песне:
  • Аккорды и текст

Страница создана 28.02.2014
http://primanota.ru/doom-vs/upon-the-cataract-chords.htm
Привет, Гость.
Предлагаем пройти революционный курс по гитаре.
Подарок от PrimaNota.Ru, забирай!