PrimaNota.ru - самый крупный в мире бесплатный архив песенных текстов, аккордов, табулатур и нот


Doobie Brothers - I Can Read Your Mind - текст песни, бас-таба, видео

Регистрация Запомнить меня
Войти через:  Facebook Google Twitter Vk Yandex Mail.ru

Doobie Brothers - I Can Read Your Mind - текст песни, бас-таба, видео

Печатать
Просмотров: 52
Уроки эстрадного вокала в Санкт-Петербурге
-------------------------------------------------------------------------------
                  I Can Read Your Mind - Doobie Brothers
-------------------------------------------------------------------------------
Tabbed by: Mike Kunz
E-mail: rmjk21@gmail.com

Tuning:



 ( Intro )
G|--------|--------|--------|--------|
D|--------|--------|--------|--------|
A|--------|--------|--------|--------|
E|--------|--------|--------|--------|

 ( Intro )
G|--------|--------|--------|--------|--------|--------|--------|--------|-------|
D|-4------|--------|--------|---4----|----4---|--------|--------|------4-|-------|
A|--------|--5-----|---7----|--------|--------|-----5--|------7-|--------|-------|
E|--------|--------|--------|--------|--------|--------|--------|--------|-------|

                                     Well your love is Supernatural        
G|--------|--------|--------|--------|--------|--------|--------|--------|-------|
D|-4------|--------|--------|---4----|----4---|--------|--------|------4-|-------|
A|--------|--5-----|---7----|--------|--------|-----5--|------7-|--------|-------|
E|--------|--------|--------|--------|--------|--------|--------|--------|-------|

  You don't have to say a word
G|--------|--------|--------|--------|--------|--------|--------|--------|-------|
D|-4------|--------|--------|---4----|----4---|--------|--------|------4-|-------|
A|--------|--5-----|---7----|--------|--------|-----5--|------7-|--------|-------|
E|--------|--------|--------|--------|--------|--------|--------|--------|-------|


  I can almost hear your voice
G|--------|--------|--------|--------|
D|-4------|--------|--------|---4----|
A|--------|--5-----|---7----|--------|
E|--------|--------|--------|--------|

  I can read your mind
G|--------|--------|--------|--------|--------|--------|--------|--------|
D|--------|--------|--------|--------|--------|--------|--------|--------|
A|--------|--------|--------|--------|--------|--------|--------|--------|
E|--------|--------|--------|--------|--------|--------|--------|--------|

  Now I know you have the 
G|--------|--------|--------|--------|--------|--------|--------|--------|
D|-4------|--------|--------|---4----|----4---|--------|--------|------4-|
A|--------|--5-----|---7----|--------|--------|-----5--|------7-|--------|
E|--------|--------|--------|--------|--------|--------|--------|--------|


  I can read your mind
G|--------|--------|--------|--------|--------|--------|--------|--------|
D|--------|--------|--------|--------|--------|--------|--------|--------|
A|--------|--------|--------|--------|--------|--------|--------|--------|
E|--------|--------|--------|--------|--------|--------|--------|--------|

 I can read your mind
G|--------|--------|--------|--------|--------|--------|--------|--------|
D|--------|--------|--------|--------|--------|--------|--------|--------|
A|--------|--------|--------|--------|--------|--------|-5-4-2--|--------|
E|--------|--------|--------|--------|--------|--------|-------5|----5---|

  That will last
G|--------|--------|--------|--------|--------|--------|-------|
D|--------|--------|--------|-4------|--4-----|--------|-------|
A|--------|-2--4-5-|--------|--------|--------|7--7-5-4|-------|
E|5-------|--------|--------|--------|--------|--------|-7-5-4-|

                 ( Guitar Solo )
G|--------|--------|--------|--------|--------|--------|--------|--------|
D|-----3-5|-7------|--------|--------|--------|--------|--------|--------|
A|-5-7----|--------|--9-----|--------|-7------|--------|-5------|--------|
E|--------|--------|--------|--------|--------|--------|--------|--------|

  ( Guitar Solo )
G|--------|--------|--------|--------|--------|--------|--------|--------|
D|---4----|--------|--------|--------|--------|--------|--------|--------|
A|--------|--------|---9----|--------|----7---|--------|---5----|--------|
E|--------|--------|--------|--------|--------|--------|--------|--------|

  ( Guitar Solo )
G|--------|--------|--------|--------|--------|--------|--------|--------|--------|
D|----4---|--------|------4-|--------|--------|--------|------4-|--------|--------|
A|--------|--------|--------|--------|--------|--------|--------|--------|--------|
E|--------|--------|--------|--------|--------|--------|--------|--------|--------|


  Well your love is supernatural
G|--------|--------|--------|--------|--------|--------|--------|--------|-------|
D|-4------|--------|--------|---4----|----4---|--------|--------|------4-|-------|
A|--------|--5-----|---7----|--------|--------|-----5--|------7-|--------|-------|
E|--------|--------|--------|--------|--------|--------|--------|--------|-------|



  Well your love is supernatural
G|--------|--------|--------|--------|--------|--------|--------|--------|-------|
D|-4------|--------|--------|---4----|----4---|--------|--------|------4-|-------|
A|--------|--5-----|---7----|--------|--------|-----5--|------7-|--------|-------|
E|--------|--------|--------|--------|--------|--------|--------|--------|-------|


  Well your love is supernatural
G|--------|--------|--------|--------|--------|--------|--------|--------|-------|
D|-4------|--------|--------|---4----|----4---|--------|--------|------4-|-------|
A|--------|--5-----|---7----|--------|--------|-----5--|------7-|--------|-------|
E|--------|--------|--------|--------|--------|--------|--------|--------|-------|


  I can read your mind
G|--------|--------|--------|--------|--------|--------|--------|--------|-------|
D|-4------|--------|--------|---4----|----4---|--------|--------|------4-|-------|
A|--------|--5-----|---7----|--------|--------|-----5--|------7-|--------|-------|
E|--------|--------|--------|--------|--------|--------|--------|--------|-------|


  I can read your mind
G|--------|--------|--------|--------|--------|--------|--------|--------|-------|
D|-4------|--------|--------|---4----|----4---|--------|--------|------4-|-------|
A|--------|--5-----|---7----|--------|--------|-----5--|------7-|--------|-------|
E|--------|--------|--------|--------|--------|--------|--------|--------|-------|


  ( Outro ) ( Guitar Solo )                                               fade out
G|--------|--------|--------|--------|--------|--------|--------|--------|-------|
D|-4------|--------|--------|---4----|----4---|--------|--------|------4-|-------|
A|--------|--5-----|---7----|--------|--------|-----5--|------7-|--------|-------|
E|--------|--------|--------|--------|--------|--------|--------|--------|-------|




Добавлено: 28.03.2016
Другие материалы по этой песне:
  • Аккорды и текст

Страница создана 14.03.2012
http://primanota.ru/doobie-brothers/i-can-read-your-mind-chords.htm
Привет, Гость.
Предлагаем пройти революционный курс по гитаре.
Подарок от PrimaNota.Ru, забирай!