PrimaNota.ru - самый крупный в мире бесплатный архив песенных текстов, аккордов, табулатур и нот


Doobie Brothers - Don't Stop To Watch The Wheels - аккорды и текст, видео

Регистрация Запомнить меня
Войти через:  Facebook Google Twitter Vk Yandex Mail.ru

Doobie Brothers - Don't Stop To Watch The Wheels - аккорды и текст, видео

Печатать
Просмотров: 40
Don't Stop To Watch The Wheels
Doobie Brothers
Don't Stop To Watch The Wheels
The Doobie Brothers


Tuning:Standard

e|-----5----------------------|---------------------------|
B|---6---6--------------------|---------------------------|
G|---------7-5---0---0--------|---------------------------|
D|-------------7---4---4-0----|-------3-5-----------------|
A|-------------------------3--|-X-3-5-----0-3-------------|
E|----------------------------|---------------------------|

e|-----5----------------------|---------------------------|
B|---6---6--------------------|---------------------------|
G|---------7-5---0---0--------|---------------------------|
D|-------------7---4---4-0----|-------3-5-----------------|
A|-------------------------3--|-X-3-5-----3-5-------------|
E|----------------------------|---------------------------|



Verse:
      D        C             G/B      
I was trashed, ridin' on my 74
Bb                    D
Goin' out to even the score
               C                  G/B       
She pulled the top down on her convertible
Bb                     D
     I've got a lot of miles to cover
C                        G/B              Bb
    But if you think you need a lover all right

Chorus:
       D       C        G/B               Bb
Climb on, hold tight, I got a long ride tonight
       C  G            C  G
Look out,        hold on
      C       G         Bb     F        C   G
Don't stop to watch the wheels go 'round
      C    G       C    G      Bb F  Eb          F  
Look out,     hold on I got to cover ground

Verse:
        D           C             G/B
Well, I flashed the colors that I wore
  Bb                   D
I got to have a little more
        C            G/B   
Of this sweet, sweet thing
Bb                   D
   I've got a lot of miles to cover
C                       G/B              Bb
   But if you think you need a lover all right

Chorus:
       D       C        G/B               Bb
Climb on, hold tight, I got a long ride tonight
       C  G            C  G
Look out,        hold on
      C       G         Bb     F        C   G
Don't stop to watch the wheels go 'round
      C    G       C    G      Bb F  Eb          F  
Look out,     hold on I got to cover ground

Solo
| Eb   | F F|
| Eb   | F  | Ab  | Eb  | F  | F  |
| Ab  | Eb  | Ab  | Eb  |
| Ab Eb  | Ab Eb  | Ab Eb Gb Db |
| Ab Eb  | Ab Eb  | Ab Eb Gb Db |
| B   | B   | Db  | Db  |


Coda:

       Ab Eb          Ab  Eb
Look out,        hold on
      Ab      Eb        Gb     Db       Ab  Eb
Don't stop to watch the wheels go 'round
      Ab   Eb      Ab   Eb     Gb Db B      Db  
Look out,     hold on I got to cover ground

Repeat and fade



Tabbed by: John Cardwell
User:jvc556



Добавлено: 28.03.2016
Другие материалы по этой песне:
  • Аккорды и текст

Страница создана 11.08.2013
http://primanota.ru/doobie-brothers/dont-stop-to-watch-the-wheels-chords.htm
Привет, Гость.
Предлагаем пройти революционный курс по гитаре.
Подарок от PrimaNota.Ru, забирай!