PrimaNota.ru - самый крупный в мире бесплатный архив песенных текстов, аккордов, табулатур и нот


Dont Look Down - Toothpaste - аккорды и текст, таба, видео

Регистрация Запомнить меня
Войти через:  Facebook Google Twitter Vk Yandex Mail.ru

Dont Look Down - Toothpaste - аккорды и текст, таба, видео

Печатать
Просмотров: 104
Toothpaste
Dont Look Down
Dont Look Down - Toothpaste
By:Andrew Mcshan(Guitarguyx182@belg88.com)

Verse
e|---------------------------------------------------------------------------|
B|---------------------------------------------------------------------------|
G|-------5-----------------5-5-7-7---7-5-4-2---------------------------------|
D|-5-5-2-5----x2---5-5-2-2-5-5-7-7---7-5-4-2---------------------------------|
A|-5-5-2-3---------5-5-2-2-3-3-5-5---5-3-2-0---------------------------------|
E|-3-3-0-----------3-3-0-0---------------------------------------------------|
Chorus
e|---------------------------------------------------------------------------|
B|------------5--------------5---------------------------------------------|
G|-----4-4-5-----5-----4-4-5---5----7-7-7-7--7-5-4-2-----------------------|
D|-5-5-4-4-5-------5-5--4-4-5------x2-7-7-7-7--7-5-4-2-----------------------|
A|-5-5-2-2-3-------5-5--2-2-3---------5-5-5-5--5-3-2-0-----------------------|
E|-3-3-------------3-3-------------------------------------------------------|
Bridge
e|---------------------------------------------------------------------------|
B|---------------------------------------------------------------------------|
G|-------------------5--5--5--7----------------------------------------------|
D|-5--5--5--2--2--2--5--5--5--7----------------------------------------------|
A|-5--5--5--2--2--2--3--3--3--5----------------------------------------------|
E|-3--3--3--0--0--0----------------------------------------------------------|
Добавлено: 01.08.2013
Другие материалы по этой песне:
  • Аккорды и текст

Страница создана 05.07.2012
http://primanota.ru/dont-look-down/toothpaste-chords.htm
Привет, Гость.
Предлагаем пройти революционный курс по гитаре.
Подарок от PrimaNota.Ru, забирай!