PrimaNota.ru - самый крупный в мире бесплатный архив песенных текстов, аккордов, табулатур и нот


Donovan - Universal Soldier Picking - таба, видео

Регистрация Запомнить меня
Войти через:  Facebook Google Twitter Vk Yandex Mail.ru

Donovan - Universal Soldier Picking - таба, видео

Печатать
Просмотров: 232
                              Universal Soldier     (Donovan)                            


guitar - finger picking
     F                        G                      C                    
     Q    E  E  E  E  Q       Q    Q    Q    Q       Q    Q    Q    Q     
E||--1---------------------|----------------------|----------------------|
B||----------------1-------|--0---------1----3----|--1---------3---------|
G||----------2-------------|--0-------------------|----------------------|
D||-------3-----------3----|-------0--------------|-------2---------0----|
A||------------------------|------------0----2----|--3---------2---------|
E||--1----------1----------|--3-------------------|----------------------|


  Am                                                                   
  Q    Q    Q    Q       Q    E  E  E  E  Q       Q    Q    Q    Q     
----------------------|--1---------------------|----------------------|
--1---------0---------|----------------1-------|--0---------1----3----|
--2---------0---------|----------2-------------|--0-------------------|
-------2---------0----|-------3-----------3----|-------0--------------|
--0-------------------|------------------------|------------0----2----|
------------3---------|--1----------1----------|--3-------------------|


  C                                                
  Q    E  E  E  E  Q       Q    E  E  E  E  E  E   
----------------0-------|----------------0--------|
--1---------------------|--1----------------------|
----------0-------------|----------0-----------0--|
-------2-----------2----|-------2-----------2-----|
--3---------------------|--3----------------------|
-------------3----------|-------------3-----------|


    verses 1,2,3,4,5                                             
    F                                    G                       
    Q                E  E  E  E  Q       Q    E  E  E  E  E  E   
|---1---------------------------------|-------------------------|
|-----------------------------1-------|--0-------------0--------|
|*----------------------2-------------|--0-------0-----------0--|
|*-------------------3-----------3----|-------0-----------0-----|
|-------------------------------------|-------------------------|
|---1----------------------1----------|--3----------3-----------|


  C                         Am                                               
  Q    E  E  E  E  E  E     Q    E  E  E  E  E  E     Q    E  E  E  E  Q     
-------------------------|-------------------------|--1---------------------|
--1-------------1--------|--1-------------1--------|----------------1-------|
----------0-----------0--|----------2-----------2--|----------2-------------|
-------2-----------2-----|-------2-----------2-----|-------3-----------3----|
--3----------2-----------|--0----------------------|------------------------|
-------------------------|-------------3-----------|--1----------1----------|


  Q    E  E  E  E  E  E     Q    E  E  E  E  E  E     Q    E  E  E  E  E  E   
-------------------------|----------------0--------|----------------0--------|
--0-------------0--------|--1----------------------|--1----------------------|
--0-------0-----------0--|----------0-----------0--|----------0-----------0--|
-------0-----------0-----|-------2-----------2-----|-------2-----------2-----|
-------------------------|--3----------------------|--3----------------------|
--3----------3-----------|-------------3-----------|-------------3-----------|


  Q    E  E  E  E  Q       Q    E  E  E  E  E  E     Q    E  E  E  E  E  E   
--1---------------------|-------------------------|-------------------------|
----------------1-------|--0-------------0--------|--1-------------1--------|
----------2-------------|--0-------0-----------0--|----------0-----------0--|
-------3-----------3----|-------0-----------0-----|-------2-----------2-----|
------------------------|-------------------------|--3----------2-----------|
--1----------1----------|--3----------3-----------|-------------------------|


  Q    E  E  E  E  E  E     Q    E  E  E  E  Q       Q    E  E  E  E  Q     
-------------------------|--1---------------------|--1---------------------|
--1-------------1--------|--1-------------1-------|--1-------------1-------|
----------2-----------2--|----------2-------------|----------2-------------|
-------2-----------2-----|-------3-----------3----|-------3-----------3----|
--0----------------------|------------------------|------------------------|
-------------3-----------|--1----------1----------|--1----------1----------|


                                                      verse 6                   
  Dm                        G7                        F                         
  Q    E  E  E  E  E  E     Q    E  E  Q    Q     5x  Q       E  E  E  E  Q     
--1----------------------|--1---------------------||--1------------------------|
----------------3--------|--0-------0--1----3-----||-------------------1-------|
----------2-----------2--|-----------------------*||-------------2-------------|
-------0-----------0-----|-------0---------------*||----------3-----------3----|
--0----------0-----------|-------------0----2-----||---------------------------|
-------------------------|--3---------------------||--1-------------1----------|


  G                         C                         Am                      
  Q    E  E  E  E  E  E     Q    E  E  E  E  E  E     Q    E  E  E  E  E  E   
-------------------------|-------------------------|-------------------------|
--0-------------0--------|--1-------------1--------|--1-------------1--------|
--0-------0-----------0--|----------0-----------0--|----------2-----------2--|
-------0-----------0-----|-------2-----------2-----|-------2-----------2-----|
-------------------------|--3----------2-----------|--0----------------------|
--3----------3-----------|-------------------------|-------------3-----------|


  Q    E  E  E  E  Q       Q    E  E  E  E  E  E     Q    E  E  E  E  E  E   
--1---------------------|-------------------------|----------------0--------|
----------------1-------|--0-------------0--------|--1----------------------|
----------2-------------|--0-------0-----------0--|----------0-----------0--|
-------3-----------3----|-------0-----------0-----|-------2-----------2-----|
------------------------|-------------------------|--3----------------------|
--1----------1----------|--3----------3-----------|-------------3-----------|


  Q    E  E  E  E  E  E     Q    E  E  E  E  Q       Q    E  E  E  E  E  E   
----------------0--------|--1---------------------|-------------------------|
--1----------------------|----------------1-------|--0-------------0--------|
----------0-----------0--|----------2-------------|--0-------0-----------0--|
-------2-----------2-----|-------3-----------3----|-------0-----------0-----|
--3----------------------|------------------------|-------------------------|
-------------3-----------|--1----------1----------|--3----------3-----------|


  Q    E  E  E  E  E  E     Q    E  E  E  E  E  E     Q    E  E  E  E  Q     
-------------------------|-------------------------|--1---------------------|
--1-------------1--------|--1-------------1--------|--1-------------1-------|
----------0-----------0--|----------2-----------2--|----------2-------------|
-------2-----------2-----|-------2-----------2-----|-------3-----------3----|
--3----------2-----------|--0----------------------|------------------------|
-------------------------|-------------3-----------|--1----------1----------|


  Q    E  E  E  E  Q       W                  
--1---------------------|--1----------------||
--1-------------1-------|--3----------------||
----------2-------------|--2----------------||
-------3-----------3----|--0----------------||
------------------------|-------------------||
--1----------1----------|-------------------||




Duration Legend
---------------
W - whole
H - half
Q - quarter
E - 8th
S - 16th
T - 32nd
X - 64th
. - note dotted
|-n-|  - n-tuplets


Tablature Legend
----------------
L - tied note
x - dead note
g - grace note
(n) - ghost note
> - accentuded note
NH - natural harmonic
AH - artificial harmonic
TH - tapped harmonic
SH - semi harmonic
PH - pitch harmonic
h - hammer on
p - pull off
b - bend
br - bendRelease
pb - preBend
pbr - preBendRelease
brb - bendReleaseBend
\n/ - tremolo bar dip
\n - tremolo bar dive
-/n - tremolo bar Release up
/n\ - tremolo bar inverted dip
/n - tremolo bar return
-\n - tremolo bar Release down
S - shift slide
s - legato slide
/ -  slide into from below or out of upwards
\ -  slide into from above or out of downwards
~ - vibrato
W - wide vibrato
tr - trill
TP - tremolo picking
T - tapping
S - slap
P - pop
< - fade in
^ - brush up
v - brush down
Добавлено: 28.06.2012
Другие материалы по этой песне:

Страница создана 04.05.2012
http://primanota.ru/donovan/universal-soldier-picking-chords.htm
Привет, Гость.
Предлагаем пройти революционный курс по гитаре.
Подарок от PrimaNota.Ru, забирай!