PrimaNota.ru - самый крупный в мире бесплатный архив песенных текстов, аккордов, табулатур и нот


Donovan - Tangerine Puppet - таба, видео

Регистрация Запомнить меня
Войти через:  Facebook Google Twitter Vk Yandex Mail.ru

Donovan - Tangerine Puppet - таба, видео

Печатать
Просмотров: 111
Авторы музыки: Donovan Philips Leitch

Band/Artist: Donovan
Song: Tangerine Puppet
Tuning: Standard (Capo 3rd fret)



              Amadd9                                                   
              ^                                                        
     H        H           W                                            
E||-----------0--------|--L-------------------------------------------|
B||-----------0--------|--L-------------------------------------------|
G||-----------5--------|--L-------------------------------------------|
D||-----------7--------|--L-------------------------------------------|
A||-----------0--------|--L-------------------------------------------|
E||-----------0--------|--L-------------------------------------------|


                                            Amadd9                    
  W                   W                     Q      E  E  E  E  E  E   
-------------------|--L----------------||---0------------------------|
-------------------|--L----------------||-------------------0--------|
-------------------|--L----------------||*------------5-----------5--|
-------------------|--L----------------||*---------7-----------7-----|
-------------------|--L----------------||---0------------0-----------|
-------------------|--L----------------||----------------------------|


                                                     E         Am           
  E  E  E  E  E  E  Q       Q    E  E  E  E  Q       Q    Q    Q    Q     4x
-------------------------|--0---------------------|-----------------------||
-----0-----------0-------|----------------0-------|--0--------------------||
-----------5-------------|----------5-------------|-------1----2---------*||
--------7-----------7----|-------7-----------7----|-----------------2----*||
--0-----------0----------|--0----------0----------|-------2----0----------||
-------------------------|------------------------|--0--------------------||


  Dmadd9                                                 
  Q      E  E   E  E  E  E      E  E  E  E   E  E  Q     
--0--------------------------|--------------------------|
-------------------3---------|-----3------------3-------|
------------0h--2--------0h--|--2--------0h--2----------|
---------3------------3------|--------3------------3----|
--0-------------0------------|--0------------0----------|
-----------------------------|--------------------------|


  Am                                                
  Q    E  E  E  E  Q       E   E  E  E  E  E  Q     
--0---------------------|--------------------------|
----------------1-------|--0h--1-----------1-------|
----------2-------------|------------2-------------|
-------2-----------2----|---------2-----------2----|
--0----------0----------|--0------------0----------|
------------------------|--------------------------|


  Dmadd9                                                 
  Q      E  E   E  E  E  E      E  E  E  E   E  E  Q     
--0--------------------------|--------------------------|
-------------------3---------|-----3------------3-------|
------------0h--2--------0h--|--2--------0h--2----------|
---------3------------3------|--------3------------3----|
--0-------------0------------|--0------------0----------|
-----------------------------|--------------------------|


  E                         E7                       Amadd9                    
  Q    E  E   E  E  Q       Q    Q    Q    Q         Q      E  E  E  E  E  E   
--0----------------------|--0-------------------||---0------------------------|
-----------------0-------|------------3---------||-------------------0--------|
----------0h--1----------|----------------------||*------------5-----------5--|
-------2------------2----|-------2---------2----||*---------7-----------7-----|
-------------------------|----------------------||---0------------0-----------|
--0-----------0----------|--0---------0---------||----------------------------|


                                                     E         Am           
  E  E  E  E  E  E  Q       Q    E  E  E  E  Q       Q    Q    Q    Q     4x
-------------------------|--8-------------7-------|--0--------------------||
-----0-----------0-------|------------------------|-----------------------||
-----------5-------------|----------5-------------|-------1----2---------*||
--------7-----------7----|-------7-----------7----|-----------------2----*||
--0-----------0----------|--0----------0----------|-------2----0----------||
-------------------------|------------------------|--0--------------------||


  Dmadd9                                                 
  Q      E  E   E  E  E  E      E  E  E  E   E  E  Q     
--0--------------------------|--------------------------|
-------------------3---------|-----3------------3-------|
------------0h--2--------0h--|--2--------0h--2----------|
---------3------------3------|--------3------------3----|
--0-------------0------------|--0------------0----------|
-----------------------------|--------------------------|


  Am                                                
  Q    E  E  E  E  Q       E   E  E  E  E  E  Q     
--0---------------------|--------------------------|
----------------1-------|--0h--1-----------1-------|
----------2-------------|------------2-------------|
-------2-----------2----|---------2-----------2----|
--0----------0----------|--0------------0----------|
------------------------|--------------------------|


  Dmadd9                                                 
  Q      E  E   E  E  E  E      E  E  E  E   E  E  Q     
--0--------------------------|--------------------------|
-------------------3---------|-----3------------3-------|
------------0h--2--------0h--|--2--------0h--2----------|
---------3------------3------|--------3------------3----|
--0-------------0------------|--0------------0----------|
-----------------------------|--------------------------|


  E                         E7                       Amadd9                    
  Q    E  E   E  E  Q       Q    Q    Q    Q         Q      E  E  E  E  E  E   
--0----------------------|--0-------------------||---0------------------------|
-----------------0-------|------------3---------||-------------------0--------|
----------0h--1----------|----------------------||*------------5-----------5--|
-------2------------2----|-------2---------2----||*---------7-----------7-----|
-------------------------|----------------------||---0------------0-----------|
--0-----------0----------|--0---------0---------||----------------------------|


                                                     E         Am           
  E  E  E  E  E  E  Q       Q    E  E  E  E  Q       Q    Q    Q    Q     4x
-------------------------|--8-------------7-------|--0--------------------||
-----0-----------0-------|------------------------|-----------------------||
-----------5-------------|----------5-------------|-------1----2---------*||
--------7-----------7----|-------7-----------7----|-----------------2----*||
--0-----------0----------|--0----------0----------|-------2----0----------||
-------------------------|------------------------|--0--------------------||


  Dmadd9                                                 
  Q      E  E   E  E  E  E      E  E  E  E   E  E  Q     
--0--------------------------|--------------------------|
-------------------3---------|-----3------------3-------|
------------0h--2--------0h--|--2--------0h--2----------|
---------3------------3------|--------3------------3----|
--0-------------0------------|--0------------0----------|
-----------------------------|--------------------------|


  Am                                                
  Q    E  E  E  E  Q       E   E  E  E  E  E  Q     
--0---------------------|--------------------------|
----------------1-------|--0h--1-----------1-------|
----------2-------------|------------2-------------|
-------2-----------2----|---------2-----------2----|
--0----------0----------|--0------------0----------|
------------------------|--------------------------|


  Dmadd9                                                 
  Q      E  E   E  E  E  E      E  E  E  E   E  E  Q     
--0--------------------------|--------------------------|
-------------------3---------|-----3------------3-------|
------------0h--2--------0h--|--2--------0h--2----------|
---------3------------3------|--------3------------3----|
--0-------------0------------|--0------------0----------|
-----------------------------|--------------------------|


  E                         E7                       Amadd9                    
  Q    E  E   E  E  Q       Q    Q    Q    Q         Q      E  E  E  E  E  E   
--0----------------------|--0-------------------||---0------------------------|
-----------------0-------|------------3---------||-------------------0--------|
----------0h--1----------|----------------------||*------------5-----------5--|
-------2------------2----|-------2---------2----||*---------7-----------7-----|
-------------------------|----------------------||---0------------0-----------|
--0-----------0----------|--0---------0---------||----------------------------|


                                                     E         Am           
  E  E  E  E  E  E  Q       Q    E  E  E  E  Q       Q    Q    Q    Q     3x
-------------------------|--0---------------------|-----------------------||
-----0-----------0-------|----------------0-------|--0--------------------||
-----------5-------------|----------5-------------|-------1----2---------*||
--------7-----------7----|-------7-----------7----|-----------------2----*||
--0-----------0----------|--0----------0----------|-------2----0----------||
-------------------------|------------------------|--0--------------------||


  Amadd9                                                                       
  Q      E  E  E  E  E  E     E  E  E  E  E  E  Q       Q    E  E  E  E  Q     
--0------------------------|-------------------------|--0---------------------|
------------------0--------|-----0-----------0-------|----------------0-------|
------------5-----------5--|-----------5-------------|----------5-------------|
---------7-----------7-----|--------7-----------7----|-------7-----------7----|
--0------------0-----------|--0-----------0----------|--0----------0----------|
---------------------------|-------------------------|------------------------|


  E         Am               Amadd9                            
                             ^                                 
  Q    Q    H           Q    H.              W                 
---------------------|-------0------------|--L----------------|
--0------------------|-------0------------|--L----------------|
-------1----2--------|--L----5------------|--L----------------|
---------------------|-------7------------|--L----------------|
-------2----0--------|--L----0------------|--L----------------|
--0------------------|-------0------------|--L----------------|


-------------------||
-------------------||
-------------------||
-------------------||
-------------------||
-------------------||




Duration Legend
---------------
W - whole
H - half
Q - quarter
E - 8th
S - 16th
T - 32nd
X - 64th
. - note dotted
|-n-|  - n-tuplets


Tablature Legend
----------------
L - tied note
x - dead note
g - grace note
(n) - ghost note
> - accentuded note
NH - natural harmonic
AH - artificial harmonic
TH - tapped harmonic
SH - semi harmonic
PH - pitch harmonic
h - hammer on
p - pull off
b - bend
br - bendRelease
pb - preBend
pbr - preBendRelease
brb - bendReleaseBend
\n/ - tremolo bar dip
\n - tremolo bar dive
-/n - tremolo bar Release up
/n\ - tremolo bar inverted dip
/n - tremolo bar return
-\n - tremolo bar Release down
S - shift slide
s - legato slide
/ -  slide into from below or out of upwards
\ -  slide into from above or out of downwards
~ - vibrato
W - wide vibrato
tr - trill
TP - tremolo picking
T - tapping
S - slap
P - pop
< - fade in
^ - brush up
v - brush down
Добавлено: 15.07.2012
Другие материалы по этой песне:

Страница создана 29.04.2012
http://primanota.ru/donovan/tangerine-puppet-chords.htm
Привет, Гость.
Предлагаем пройти революционный курс по гитаре.
Подарок от PrimaNota.Ru, забирай!