PrimaNota.ru - самый крупный в мире бесплатный архив песенных текстов, аккордов, табулатур и нот


Donots - Were Not Gonna Take It - таба, видео

Регистрация Запомнить меня
Войти через:  Facebook Google Twitter Vk Yandex Mail.ru

Donots - Were Not Gonna Take It - таба, видео

Печатать
Просмотров: 132
Авторы музыки: Dee Snider
Авторы текста: Dee Snider
Were not gonna take it by Donots
Hi es ist mein erster Tab also seid nicht so streng ;D
Wer Verbesserungen hat bitte an mich d-eiche@arcor.de
oder in die Comments Akkorde sind Dis, Ais, Dis und Gis
bei der Brigde bin ich mir nicht zu 100% sicher also bitte verbessern wenns falsch ist.



lfs = listen for strumming
  . = Palm-Muted
  ~ = hold note
  ^ = vibrate
  p = pull off
  h = hammer on
  / = slide up
  \ = slide down
  * = pinch

Tuning Standard

Intro

E-----------------------------------------------------------------|
B-----------------------------------------------------------------|
G---8~~~--------13----12----10----8--------13----12----10----8----|
D---8~~~--------13-x4-12-x4-10-x4-8-x4-----13-x4-12-x4-10-x4-8-x4-|
A---6~~~--------13----12----10----8--------13----12----10----8----|
E-----------------------------------------------------------------|


Vers: Part 1                Part 2
E-------------------------|-----------------------------------------|
B-------------------------|-----------------------------------------|
G---8---------8-----------|---8---------8---------------------------|
D---8-x8-8----8-x8--6-----|---8-x8-8----8-x8-8----------------------|
A---6----8-x8-6-----6-----|---6----8-x8-6----8-x8-------------------|
E--------6----------4-----|--------6---------6----------------------|
    .    .     .    lfs       .    .    .     .


 Part 1                      Part 2
E-------------------------|-----------------------------------------|
B-------------------------|-----------------------------------------|
G---8---------8-----------|---8---------8---------------------------|
D---8-x8-8----8-x8--6-----|---8-x8-8----8-x8-8----------------------|
A---6----8-x8-6-----6-----|---6----8-x8-6----8-x8-------------------|
E--------6----------4-----|--------6---------6----------------------|
    .    .     .    lfs       .    .    .  !!frei!!



Refrain:
Strumming: down dowm up up down up (Wenn ihr was besseres findet  postet es bitte in die 
Comments oder schreibts mir )

E-------------------------------------------------------------|
B-------------------------------------------------------------|
G---8-------------------------8-------------------------------|
D---8---8---13---6---13---8---8-------------------------------|
A---6---8---13---6---13---8---6-------------------------------|
E-------6---11---4---11---6-----------------------------------|

Dann Vers Part1 + Part2( da hat die Gitarre eigentlich pause aber zum üben könnt ihr 
denn part 1/2 drüberspieln)  dann wieder part1 +part2 dann Brigde
von part 2 ist eine Überleitung zur Brigde bedeutet:

(VersPart2 vor Brigde)=Brigde1
E--------------------------------------------------|
B--------------------------------------------------|
G--8----------8----5----4-----2--------------------|
D--8-x8-8-----8-x4-5-x4-4-x4--2-x4-----------------|
A--6----8-x8--6----5----4-----2--------------------|
E-------6------------------------------------------|
   .    .   !frei!
Brigde2:
E------------------------------------------------------------|
B------------------------------------------------------------|
G--------------------8---9---10----15------------------------|
D--4-4-\6------------8---9---10----15-ca.x16-----------------|
A--4-4-\6---x8-------6---7---8-----13------------------------|
E------------------------------------------------------------|

Refrain x2
dann Solo muss ich erst noch heraushörn sry wenns jemand hat bitte posten :D
statt dem Solo kann auch 1x Refrain gespielt werden

dann Brigde2
dann 1x Refrain Pause
dann 3x Refrain dann Smile :D
Добавлено: 21.07.2012
Другие материалы по этой песне:
  • Аккорды и текст

Страница создана 21.07.2012
http://primanota.ru/donots/were-not-gonna-take-it-chords.htm
Привет, Гость.
Предлагаем пройти революционный курс по гитаре.
Подарок от PrimaNota.Ru, забирай!