PrimaNota.ru - самый крупный в мире бесплатный архив песенных текстов, аккордов, табулатур и нот


Donots - We Got The Noise - текст песни, таба, видео

Регистрация Запомнить меня
Войти через:  Facebook Google Twitter Vk Yandex Mail.ru

Donots - We Got The Noise - текст песни, таба, видео

Печатать
Просмотров: 201
Уроки эстрадного вокала в Санкт-Петербурге
We Got The Noise by Donots

/=slide up
\=slide down
p.m.=palm mute
h=hammer
p=pull

Tune all guitars down to Eb,Ab,Db,Gb,Bb and Eb!
  
Intro:
Part1:
1st guitar:
Eb[------------------------]
Bb[--/9--------------------]
Gb[-----11-11-/12-12-12-12-]
Db[-/12--------------------]   2x
Ab[------9--9-/10-10-10-10-]
Eb[------------------------]

2nd guitar:
Eb[-----------------]
Bb[-----------------]
Gb[-4---------------]
Db[-4--4-4-/5-5-5-5-]   2x
Ab[-2--4-4-/5-5-5-5-]
Eb[----2-2-/3-3-3-3-]

Part2:
1st guitar:
Eb[------3-----5---/8---7---5---3--5--5-5-5-5-5-5-5-5-5-5-5-5-5-5-5-]
Bb[-3-3----3-3--3-----x---x---x----3--3-3-3-3-3-3-3-3-3-3-3-3-3-3-3-]
Gb[-----------------------------------------------------------------]
Db[-----------------------------------------------------------------]
Ab[-----------------------------------------------------------------]
Eb[-----------------------------------------------------------------]

  [-----3-----5---/8-\7-\5-\3-5--5-5-5-5--3--2--0----]
  [-3-3---3-3---3----x---x---x---3--3-3-3-3-----------3-]
  [-----------------------------------------------------]
  [-----------------------------------------------------]
  [-----------------------------------------------------]
  [-----------------------------------------------------]

2nd guitar:
Eb[------------------------------------------------------------------]
Bb[------------------------------------------------------------------]
Gb[---------------------------------7--7-7-7-7-7-7-7-7-7-7-7-7-7-7-7-]
Db[-5-5-5-5-5-5-5-\2--2-2-2-2-2-2-/7--7-7-7-7-7-7-7-7-7-7-7-7-7-7-7-]   2x
Ab[-5-5-5-5-5-5-5-\2--2-2-2-2-2-2-/5--5-5-5-5-5-5-5-5-5-5-5-5-5-5-5-]
Eb[-3-3-3-3-3-3-3-\0--0-0-0-0-0-0-----------------------------------]

Vers:
1st guitar:
Eb[-----------------------------------]     Then play:[----------------------------------] 
Bb[-----8-------8--------8-------8----]               [------8-------8-------8-------8---]
Gb[-----7-------7--------7-------7----]               [------8-------8-------8-------8---]
Db[-----------------------------------]   3x          [----------------------------------] 1x
Ab[-----------------------------------]               [----------------------------------]
Eb[-----------------------------------]               [----------------------------------]
Play this 2x
                                                  
2nd guitar:
Eb[------------------------------------]    Then play:[----------------------------------]
Bb[------------------------------------]              [----------------------------------]
Gb[------------------------------------]              [-7--7-7-7-7-7-7-7-7-7-7-7-7-7-7-7-]
Db[-5-5-5-5-5-5-5-\2-2-2-2-2-2-2-2-2/-]   3x         [-7--7-7-7-7-7-7-7-7-7-7-7-7-7-7-7-] 1x
Ab[-5-5-5-5-5-5-5-\2-2-2-2-2-2-2-2-2/-]              [-5--5-5-5-5-5-5-5-5-5-5-5-5-5-5-5-] 
Eb[-3-3-3-3-3-3-3-\0-0-0-0-0-0-0-0-0/-]              [----------------------------------]
p.m.. . . . . . .   . . . . . . . . .              p.m. .  . . . . . . . . . . . . . . .  
Play this 2x

Both guitars play their Intro part 1

Chorus:
1st guitar plays the Intro part 2 2x

2nd guitar:
Eb[------------------------------------------------------------------]
Bb[------------------------------------------------------------------]
Gb[---------------------------------7--7-7-7-7-7-7-7-7-7-7-7-7-7-7-7-]
Db[-5-5-5-5-5-5-5-\2--2-2-2-2-2-2-/7--7-7-7-7-7-7-7-7-7-7-7-7-7-7-7-]  4x
Ab[-5-5-5-5-5-5-5-\2--2-2-2-2-2-2-/5--5-5-5-5-5-5-5-5-5-5-5-5-5-5-5-]
Eb[-3-3-3-3-3-3-3-\0--0-0-0-0-0-0-----------------------------------]

Both guitars play their Vers part 2x

Both guitars play their Intro part 1

Both guitars play their chorus part

After that both guitars play this:
Eb[-----------------------------------]     Then play: [---------------------------------]
Bb[-----------------------------------]                [---------------------------------]
Gb[-----------------------------------]                [--7--7-7-7-7-7-7-7-7-7-7-7-7-7-7-]
Db[-5-5-5-5-5-5-5-\2--2-2-2-2-2-2-2/-]   3x           [-/7--7-7-7-7-7-7-7-7-7-7-7-7-7-7-] 1x
Ab[-5-5-5-5-5-5-5-\2--2-2-2-2-2-2-2/-]                [-/5--5-5-5-5-5-5-5-5-5-5-5-5-5-5-]
Eb[-3-3-3-3-3-3-3-\0--0-0-0-0-0-0-0/-]                [---------------------------------]

1st guitar plays this before the solo:         Then both guitars play:  
Eb[----------------------------------]         [---------------------------------] 
Bb[----------------------------------]         [---------------------------------]
Gb[-4-4-4-4-4-4-4-/5-5-5-5-5-5-5-5-5-]         [-/7--7-7-7-7-7-7-7-7-7-7-7-7-7-7-]
Db[-5-5-5-5-5-5-5--5-5-5-5-5-5-5-5-5-] 3x      [-/7--7-7-7-7-7-7-7-7-7-7-7-7-7-7-]
Ab[-2-2-2-2-2-2-2-/3-3-3-3-3-3-3-3-3-]         [-/5--5-5-5-5-5-5-5-5-5-5-5-5-5-5-]
Eb[----------------------------------]         [---------------------------------]
p.m.. . . . . . .  . . . . . . . . .

Then comes the solo:
1st guitar:
Eb[-----------3-3-3-3\2-2-2-2-----5--5-5p3-5-5-5p3-5-5-5p3-/7-3-5-3-]
Bb[-5p3-3-3---3-3-3-3----------5-5-3--3-3---3-3-3---3-3-3------------]
Gb[-0----------------------------------------------------------------]
Db[------------------------------------------------------------------]
Ab[------------------------------------------------------------------]
Eb[------------------------------------------------------------------]
 
  [-----------3-3-3-3\2-2-2-2-----5---5-5-5-5-5-5-5-]
  [-3h5-5p3-5-3-3-3-3----------5-5-3---3-3-3-3-3-3-3-]
  [-0----0-------------------------------------------]
  [--------------------------------------------------]
  [--------------------------------------------------]
  [--------------------------------------------------]

2nd guitar plays chorus part but only two times

Both guitars play intro part 1 1x

Both guitars play their chorus part 

Both guitars play this:
Eb[----------------------------------]     Then play: [--------------------------]
Bb[----------------------------------]                [--------------------------]
Gb[----------------------------------]                [-7----7----7----7-----7-7-]
Db[-5-5-5-5-5-5-5-\2--2-2-2-2-2-2-2-]   7x           [-7----7----7----7-----7-7-]
Ab[-5-5-5-5-5-5-5-\2--2-2-2-2-2-2-2-]                [-5----5----5----5-----5-5-]
Eb[-3-3-3-3-3-3-3-\0--0-0-0-0-0-0-0-]                [--------------------------]

The end chord for both guitars is:
[---]
[---]
[---]
[-5-]
[-5-]
[-3-]
Добавлено: 30.07.2012
Другие материалы по этой песне:

Страница создана 19.03.2012
http://primanota.ru/donots/we-got-the-noise-chords.htm
Привет, Гость.
Предлагаем пройти революционный курс по гитаре.
Подарок от PrimaNota.Ru, забирай!