PrimaNota.ru - самый крупный в мире бесплатный архив песенных текстов, аккордов, табулатур и нот


Donots - Watch You Fall - текст песни, таба, видео

Регистрация Запомнить меня
Войти через:  Facebook Google Twitter Vk Yandex Mail.ru

Donots - Watch You Fall - текст песни, таба, видео

Печатать
Просмотров: 128
-- Artist: DONOTS --
-- Song: WATCH YOU FALL --
-- Album: POCKETROCK --
-- Tabbed by BJFABIO BERLUSCONI --
-- Email:andrea.fabio@tin.it --

GUITAR TUNED 1/2 STEP DOWN OR SIMPLY PLAY THE SONG 1/2 STEP DOWN

 Riff 1
  A                                 B
e|------------------------------------------------------------------|
B|------------------------------------------------------------------|
G|------------------------------------------------------------------|
D|-7-7-7-7-7-7-7-7-7-7-7-7-7-7-7-7--9-9-9-9-9-9-9-9-9-9-9-9-9-9-9-9-|
A|-7-7-7-7-7-7-7-7-7-7-7-7-7-7-7-7--9-9-9-9-9-9-9-9-9-9-9-9-9-9-9-9-|
E|-5-5-5-5-5-5-5-5-5-5-5-5-5-5-5-5--7-7-7-7-7-7-7-7-7-7-7-7-7-7-7-7-|
   D                                D
e|------------------------------------------------------------------|
B|------------------------------------------------------------------|
G|-7-7-7-7-7-7-7-7-7-7-7-7-7-7-7-7--7-7-7-7-7-7-7-7-7-7-7-7-7-7-4-4-|
D|-7-7-7-7-7-7-7-7-7-7-7-7-7-7-7-7--7-7-7-7-7-7-7-7-7-7-7-7-7-7-4-4-|
A|-5-5-5-5-5-5-5-5-5-5-5-5-5-5-5-5--5-5-5-5-5-5-5-5-5-5-5-5-5-5-2-2-|
E|------------------------------------------------------------------|                                 D
   F#                               A
e|------------------------------------------------------------------|
B|------------------------------------------------------------------|
G|------------------------------------------------------------------|
D|-4-4-4-4-4-4-4-4-4-4-4-4-4-4-4-4--7-7-7-7-7-7-7-7-7-7-7-7-7-7-7-7-|
A|-4-4-4-4-4-4-4-4-4-4-4-4-4-4-4-4--7-7-7-7-7-7-7-7-7-7-7-7-7-7-7-7-|
E|-2-2-2-2-2-2-2-2-2-2-2-2-2-2-2-2--5-5-5-5-5-5-5-5-5-5-5-5-5-5-5-5-|
   D                                D
e|------------------------------------------------------------------|
B|------------------------------------------------------------------|
G|-7-7-7-7-7-7-7-7-7-7-7-7-7-7-7-7--7-7-7-7-7-7-7-7-7-7-7-7-7-7-7-7-|
D|-7-7-7-7-7-7-7-7-7-7-7-7-7-7-7-7--7-7-7-7-7-7-7-7-7-7-7-7-7-7-7-7-|
A|-5-5-5-5-5-5-5-5-5-5-5-5-5-5-5-5--5-5-5-5-5-5-5-5-5-5-5-5-5-5-5-5-|
E|------------------------------------------------------------------|

First time it's played palm-muted

 Riff 2
   B               D                A
e|------------------------------------------------------------------|
B|------------------------------------------------------------------|
G|-----------------7---X-7---7-7-7----------------------------------|
D|-9---X-9---9-9-9-7---X-7---7-7-7--7-7-7-7-7-7-7-7-7-7-7-7-7-7-7-7-|
A|-9---X-9---9-9-9-5---X-5---5-5-5--7-7-7-7-7-7-7-7-7-7-7-7-7-7-7-7-|
E|-7---X-7---7-7-7------------------5-5-5-5-5-5-5-5-5-5-5-5-5-5-5-5-|

 Riff 3
   F#      E       B      D        F#      E       D
e|------------------------------------------------------------------|
B|------------------------------------------------------------------|
G|------------------------7------------------------7----------------|
D|-4-------2-------9------7--------4-------2-------7----------------|
A|-4-------2-------9------5--------4-------2-------5----------------|
E|-2-------0-------7---------------2-------0------------------------|

 Riff 4
   F#  D     A                 F#  D     A
e|------------------------------------------------------------------|
B|------------------------------------------------------------------|
G|-----7-7-------------------------7-7------------------------------|
D|-4---7-7---7-7-7-7-7-7-7-7---4---7-7---7-7-7-7-7-7-7-7------------|
A|-4---5-5---7-7-7-7-7-7-7-7---4---5-5---7-7-7-7-7-7-7-7------------|
E|-2---------5-5-5-5-5-5-5-5---2---------5-5-5-5-5-5-5-5------------|

 Riff 5
   D                                A             A
e|------------------------------------------------------------------|
B|------------------------------------------------------------------|
G|-7-7-7-7-7-7-7-7-7-7-7-7-7-7-7-7----------------------------------|
D|-7-7-7-7-7-7-7-7-7-7-7-7-7-7-7-7--7-------------7-----------------|
A|-5-5-5-5-5-5-5-5-5-5-5-5-5-5-5-5--7-------------7-----------------|
E|----------------------------------5-------------5-----------------|

 Riff 6
   B               D                A
e|------------------------------------------------------------------|
B|------------------------------------------------------------------|
G|-----------------7------------------------------------------------|
D|-9---------------7----------------7-------------------------------|
A|-9---------------5----------------7-------------------------------|
E|-7--------------------------------5-------------------------------|

 Riff 7 (over riff 4)

e|-13-13-13-13-13-13-13-13-13-13-13-13-13-13-13-13-13-13-13-13-13---|
B|------------------------------------------------------------------|
G|------------------------------------------------------------------|
D|------------------------------------------------------------------|
A|------------------------------------------------------------------|
E|------------------------------------------------------------------|

  This should be right....have fun!!!!!

-- riff 1 x2
-- riff 2 x2
-- riff 3
-- riff 1
-- riff 2 x2
-- riff 3 x2 (second time palm-muted)
-- riff 4
-- riff 5
-- riff 1
-- riff 6 x4
-- riff 4
-- riff 7 (over riff 4)
Добавлено: 19.07.2012
Другие материалы по этой песне:
  • Аккорды и текст

Страница создана 30.06.2012
http://primanota.ru/donots/watch-you-fall-chords.htm
Привет, Гость.
Предлагаем пройти революционный курс по гитаре.
Подарок от PrimaNota.Ru, забирай!