PrimaNota.ru - самый крупный в мире бесплатный архив песенных текстов, аккордов, табулатур и нот


Donots - So Long - аккорды и текст, таба, видео

Регистрация Запомнить меня
Войти через:  Facebook Google Twitter Vk Yandex Mail.ru

Donots - So Long - аккорды и текст, таба, видео

Печатать
Просмотров: 151
So Long
Donots
|-----------------------------------------------------------------------------------------------|
|                            DONOTS feat. Frank Turner - So Long                                |
|-----------------------------------------------------------------------------------------------|
From the [The "Donots/Frank Turner" - Split EP]
Tabbed by: Andreas E.
Tuning: Half-Step Down

Intro:
NOTE: The guitarist from Donots uses fingerpicking here.

  4x Am
eb|------------------|
Bb|------------------|
Gb|----5------5------|
Db|----7p5----5------|
Ab|--0------0--------|
Eb|------------------|


Verse Tab: 

    Am              F             C              G
eb|-----------------------------------------------------------------------------|
Bb|-----------------------------------------------------------------------------|
Gb|-----5-----5--------5-----5--------5-----5--------5-----5--------------------|
Db|-----7p5---5--------7p5---5--------7p5---5--------7p5---5--------------------|
Ab|--0------0------8-------8----------------------5------5----------------------|
Eb|-------------------------------8-------8-------------------------------------|


Verse: 

 Intro  | Am   F   C
Shut your eyes now
    G
The world looks better
         Am     F   C
with the lights out
G           Am   F   C
This is our time now
      G               4x F
To create and invent
          Am     F   C
We can be giants now
         G            Am   F   C
So let's wait for the blackout
G           Am   F   C
This is our time now
     G            F               
To believe and pretend

3x F


Refrain:

         Am
Who's to hold up the sky
       F
if not you and I?
   C               G
So long so long so long
         Am
Who's to tame the volcanoes
   F
on mountains high?
   C               G
So long so long so long

    F                 G
eb|-1-1-1-1-1-1-1-1-1-3-3-3----------------|
Bb|-1-1-1-1-1-1-1-1-1-3-3-3----------------|
Gb|-2-2-2-2-2-2-2-2-2-4-4-4----------------|
Db|-3-3-3-3-3-3-3-3-3-5-5-5----------------|
Ab|-3-3-3-3-3-3-3-3-3-5-5-5----------------|
Eb|-1-1-1-1-1-1-1-1-1-3-3-3----------------|


2x  Am              F             C           (1) G            (2) natural Harmonics
eb|--------------------------------------------|----------------|--------12-------|
Bb|--------------------------------------------|----------------|-----12----------|
Gb|-----5-----5--------5-----5--------5-----5--|------5-----5---|--12-------------|
Db|-----7p5---5--------7p5---5--------7p5---5--|------7p5---5---|-----------------|
Ab|--0------0------8-------8-------------------|---5------5-----|-----------------|
Eb|-------------------------------8-------8----|----------------|-----------------|


Verse:
        Am    F    C
Put the knife down
          G            Am    F   C
Don't you cut your own heart out
  G        Am    F   C
I need you alive now
         G             F    3x F
Learn to hold your own hand
        Am   F   C
Come to life now
      G            Am F   C
Let's leave before sundown
       G           Am   F   C
'Cause this is our time now
       G         F
Put an end to an end

3x F


Refrain:

         Am
Who's to hold up the sky
       F
if not you and I?
   C               G
So long so long so long
         Am
Who's to tame the volcanoes
   F
on mountains high?
   C               G
So long so long so long
         Am
Just how long does it take
         F
to drink oceans dry?
   C               G
So long so long so long
       Am               F
And every storm has got its own eye
   C               G      
So long so long so long, so long (so long)


Bridge:
NOTE: The second guitarist plays harmonic notes (see brackets).
If you want to play them use powerchords but just the bass note and the octave.


Am (C)     (D)  F (A) G (B)
  Hold on, hold on
Am (C)     (D)  F (A) 2x G (B)
  Hold on, hold on


2x  Am              F             C           (1) G            (2) D 
eb|--------------------------------------------|----------------|----------------------------|
Bb|--------------------------------------------|----------------|----------------------------|
Gb|-----5-----5--------5-----5--------5-----5--|------5-----5---|--7-7-7-7-7-7-7-7-7-7-7-7---|
Db|-----7p5---5--------7p5---5--------7p5---5--|------7p5---5---|--7-7-7-7-7-7-7-7-7-7-7-7---|
Ab|--0------0------8-------8-------------------|---5------5-----|--5-5-5-5-5-5-5-5-5-5-5-5---|
Eb|-------------------------------8-------8----|----------------|----------------------------|


Refrain:

         Am
Who's to hold up the sky
       F
if not you and I?
   C               G
So long so long so long
         Am
Who's to tame the volcanoes
   F
on mountains high?
   C               G
So long so long so long
         Am
Just how long does it take
         F
to drink oceans dry?
   C               G
So long so long so long
    Am
And someday we'll say
        F
goodbye to goodbye
   C               G
So long so long so long, sail on


Am      Fm       C
   Hold on, hold on              G
              So long so long so long
Am      Fm       C
   Hold on, hold on              G
              So long so long so long (so long)
Am      Fm       C  G
   Hold on, hold on  
Am      Fm       C  G
   Hold on, hold on  
Am


Hope you enjoy playing the song! ;)
Добавлено: 19.07.2014
Другие материалы по этой песне:
  • Аккорды и текст

Страница создана 03.08.2013
http://primanota.ru/donots/so-long-chords.htm
Привет, Гость.
Предлагаем пройти революционный курс по гитаре.
Подарок от PrimaNota.Ru, забирай!