PrimaNota.ru - самый крупный в мире бесплатный архив песенных текстов, аккордов, табулатур и нот


Donots - Outshine The World - таба, видео

Регистрация Запомнить меня
Войти через:  Facebook Google Twitter Vk Yandex Mail.ru

Donots - Outshine The World - таба, видео

Печатать
Просмотров: 112
Авторы: Alex Siedenbiedel, Jan Dirk Poggemann, Guido Knollmann, Ingo Knollmann, Eike Herwig

Donots - Outshine the world (Better days not inclueded 1999)

Great song full of energy and possitives.

Standard tuning. Maybe orig is in half-step down but i'm working in standart tuning :-(

Guitar A - Alex (i think)
Guitar B - Guido (i thing)


introA   #- 4x pm
E--------------------------------------------------------------|
B---------------------------0----------------------------------|
G-----------#--------------#4-----------#----------------------|
D--6-6-7-7-2------6-6-7-7-2-0--6-6-7-7-2-------6-6-7-7-6-6-7-7-|
A--6-6-7-7-2------6-6-7-7-2----6-6-7-7-2--2s7--6-6-7-7-6-6-7-7-|
E--4-4-5-5-0------4-4-5-5-0----4-4-5-5-0-------4-4-5-5-4-4-5-5-|


introB   #- 4x pm
E--------------------------------------------------------------|
B--------------------------------------------------------------|
G-----------#--------------#------------#----------------------|
D--6-6-7-7-2------6-6-7-7-2----6-6-7-7-2-------6-6-7-7-6-6-7-7-|
A--6-6-7-7-2------6-6-7-7-2----6-6-7-7-2-------6-6-7-7-6-6-7-7-|
E--4-4-5-5-0------4-4-5-5-0----4-4-5-5-0-------4-4-5-5-4-4-5-5-|


chorusA   #- 8x
E--/----2x----\-----5#-------5#-------|
B-------------------5--------5--------|
G---#------#--------6--------5--------|
D--2------6---------7--------7--------|
A--2------6---------7--------7--------|
E--0------4---------5--------5--------|


chorusB   %- 6x
E--/----2x----\----------------------|
B------%------%------%--------%------|
G--66-4---88-4---8-14-16-18-14-16-18-|
D------------------14-------14-------|
A--44-2---66-2---6-12-14-16-12-14-16-|
E------------------------------------|


verse1A&B(without ending)   #- play 4x  m- mute
E--m------m------m--m-----------|--ending--|
B------p------p---#--#----------|----------|
G---#--a---#--a--6--6--------------#-#-----|
D--2---u--7---u--6--6----6-6-7-7--2-2------|
A--2---s--7---s--4--4----6-6-7-7--2-2------|
E--0---e--5---e----------4-4-5-5--0-0------|


verse2B X4  Averse1A&B(with ending)   #-play 4x  m– mute 2x
E---------m-m---m---m--------------------|
B----------------------------------#-#---|
G--9h11-9-9-9-9-9-9-9-9-----------9-9----|
D------------------------6-6-7-7--9-9----|
A------------------------6-6-7-7--7-7----|
E--\---------4x--------/-4-4-5-5---------|


prechorA&B  everything play 4x
E----------------------|
B----------------------|
G--6-----------6-------|
D--6--7--7--9--6--7--7-|
A--4--7--7--9--4--7--7-|
E-----5--5--7-----5--5-|

AchorusA X2, BchorusB X2

verse3A  pm- play manytimes palm-muted
E-/----2x------\-------|
B---pm-----------------|
G--9--------------#-#--|
D--9----6-6-7-7--2-2---|     Bverse1A&B(without ending) then Bverse2B
A--7----6-6-7-7--2-2---|
E-------4-4-5-5--0-0---|


A&BprechorA&B
AchorusA X2, BchorusB X2

breakB X20  *– 2x   #- 8x    breakB ending
E-----------------        ---------------|
B----*--*--*--*---        ----#---#------|
G---8--8--9--11---and then    --14--14---|
D-----------------        ---------------|
A---6--6--7--9----        --12--12-------|
E-----------------        ---------------|

X4 is GuitarA quiet and then


breakA  #- 8x m- mute
E--/----4x---\------5#-------5#--|
B-------------------5--------5---|
G---#m-----#m-------6--------5---|
D--2------6---------7--------7---|
A--2------6---------7--------7---|
E--0------4---------5--------5---|

AchorusA  BchorusB

AchorusA  BbreakB X8 + BbreakB ending

BbreakB X3 A play chord E


outroA&B   #- 4x  m- mute
E-----------m---|
B---------------|
G------------#--|
D--6-6-7-7--2---|
A--6-6-7-7--2---|
E--4-4-5-5--0---|


i'm the energy.

Tabbed by Pavel Mader(Jožka), Olomouc, Czech Republic  3.6.2006

Corrections and approbations mail to p.mader@seznam.cz
Добавлено: 02.03.2012
Другие материалы по этой песне:
  • Аккорды и текст

Страница создана 02.03.2012
http://primanota.ru/donots/outshine-the-world-chords.htm
Привет, Гость.
Предлагаем пройти революционный курс по гитаре.
Подарок от PrimaNota.Ru, забирай!