PrimaNota.ru - самый крупный в мире бесплатный архив песенных текстов, аккордов, табулатур и нот


Donots - I Quit - текст песни, бас-таба, видео

Регистрация Запомнить меня
Войти через:  Facebook Google Twitter Vk Yandex Mail.ru

Donots - I Quit - текст песни, бас-таба, видео

Печатать
Просмотров: 210
Уроки эстрадного вокала в Санкт-Петербурге
-------------------------------------------------------------------------------
			     I QUIT - Donots
-------------------------------------------------------------------------------

Tabbed By : bass=life
e-mail: the_new_word_drudge@hotmail.com

There are certain parts of the song that im not too sure about but still...enjoy.
If you can find any parts that are wrong email me with the corrections!

Tuning: DADG

Intro (0:16) x1
G|---------------------------------------------------------------------------|
D|---------------------------------------------------------------------------|
A|---------------------------------------------------------------------------|
D|---4/11--------------------------------------------------------------------|

Chorus x2
G|-----------------------------------------------------------------------------|
D|-----------------------------------------------------------------------------|
A|------4-444-----4-444-11111111-----------------------------------------------|
D|--444-------444--------------------------------------------------------------|

Verse x2
G|-----------------------------------------------------------------------------|
D|-----------------------------------------------------------------------------|
A|--------------------------------------111111-44-111111-4---------------------|
D|-444444444444-333-1111111111111111-------------------------------------------|

Pre-Chorus x1 (10 is ten & 11 is eleven)
G|-----------------------------------------------------------------------------|
D|-----4-3---------------------------------------------------------------------|
A|--------4--------------------------------------------------------------------|
D|-44~------4--66~-8-10-11-----------------------------------------------------|

Chorus x2
G|-----------------------------------------------------------------------------|
D|-----------------------------------------------------------------------------|
A|------4-444-----4-444-11111111-----------------------------------------------|
D|--444-------444--------------------------------------------------------------|

Verse x2
G|-----------------------------------------------------------------------------|
D|-----------------------------------------------------------------------------|
A|--------------------------------------111111-44-111111-4---------------------|
D|-444444444444-333-1111111111111111-------------------------------------------|

Pre-Chorus x1
G|-----------------------------------------------------------------------------|
D|-----4-3---------------------------------------------------------------------|
A|--------4--------------------------------------------------------------------|
D|-44~------4--66~-8-10-11-----------------------------------------------------|

Chorus x4
G|-----------------------------------------------------------------------------|
D|-----------------------------------------------------------------------------|
A|------4-444-----4-444-11111111-----------------------------------------------|
D|--444-------444--------------------------------------------------------------|

Interlude x1
G|-----------------------------------------------------------------------------|
D|-----------------------------------------------------------------------------|
A|------------------------------44444444---------------------------------------|
D|-44444444-66666666-88888888--------------------------------------------------|

Interlude Cont. x1
G|-----------------------------------------------------------------------------|
D|-----------------------------------------------------------------------------|
A|---------------------111111-44-111111-4--------------------------------------|
D|-44444444-66666666-----------------------------------------------------------|

Pre-Chorus x1
G|-----------------------------------------------------------------------------|
D|-----4-3---------------------------------------------------------------------|
A|--------4--------------------------------------------------------------------|
D|-44~------4--66~-8-10-11-----------------------------------------------------|

Chorus (till end)
G|-----------------------------------------------------------------------------|
D|-----------------------------------------------------------------------------|
A|------4-444-----4-444-11111111-----------------------------------------------|
D|--444-------444--------------------------------------------------------------|
Добавлено: 24.04.2012
Другие материалы по этой песне:
  • Аккорды и текст

Страница создана 24.04.2012
http://primanota.ru/donots/i-quit-chords.htm
Привет, Гость.
Предлагаем пройти революционный курс по гитаре.
Подарок от PrimaNota.Ru, забирай!