PrimaNota.ru - самый крупный в мире бесплатный архив песенных текстов, аккордов, табулатур и нот


Donots - Goodbye Routine - таба, видео

Регистрация Запомнить меня
Войти через:  Facebook Google Twitter Vk Yandex Mail.ru

Donots - Goodbye Routine - таба, видео

Печатать
Просмотров: 94
as i couldnt find any tabs for this song i decided to tab it out on my own....
well it isnt 100% correct but sounds pretty close to the song
its my first tab so please rate....

Tuning:standard   EADGBe

listen to the song to geht out the rythm
intro 
e|---------------------------------|\
B|---------------------------------| \
G|-6--6---10--8---6--6--6--6-------|  \  play 
D|-6--6---8---8---6--6--6--6-------|  /  twice
A|-4--4---8---6---4--4--4--4-------| /
E|---------------------------------|/

verse 1
e|---------------------------------|                  \
B|---------------------------------|                   \
G|-6--6---10--8---6--6--6--6-------|                    \
D|-6--6---8---8---6--6--6--6-------|                     \
A|-4--4---8---6---4--4--4--4-------|                      \
E|---------------------------------|                       \ play
                                                           / twice
e|--------------------------------------------------|     /
B|--------------------------------------------------|    /
G|-------------------------6--6--6--5---6--6--6--5--|   /
D|-8--8--6-x---6--6--4-x---6--6--6--6---6--6--6--6--|  /
A|-8--8--8-9---6--6--6-8---4--4--4--4---4--4--4--4--| /
E|-6--6--6-6---4--4--4-4----------------------------|/

chorus 1
e|--------------------------|\
B|--------------------------| \
G|--3-3-------6-6-----------|  \ play twice
D|--3-3--6-6--6-6--4/11-11--|  /
A|--1-1--6-6--4-4--4/11-11--| /
E|-------4-4-------2/9--9---|/

verse 2:  same as verse 1

chorus 2:  play chorus 1  3 times and the last time like this
e|-----------------------|
B|-----------------------|
G|--3-3-------6-6--------|
D|--3-3--6-6--6-6--4-4-4-|  
A|--1-1--6-6--4-4--4-4-4-| 
E|-------4-4-------2-2-2-|

break or bridge or whatever 
(the bass plays #C #G and #F all the time, sounds  good on the guitar too)       
e|-------------|
B|-------------|
G|-6-6-6-6-6---|   play this couple of times
D|-6-6-6-6-6---|
A|-4-4-4-4-4---|
E|-------------|

play chorus 1 time

then break

end on #C
e|-----|
B|-----|
G|-6---|  
D|-6---|
A|-4---|
E|-----|
Добавлено: 01.05.2012
Другие материалы по этой песне:
  • Аккорды и текст

Страница создана 01.05.2012
http://primanota.ru/donots/goodbye-routine-chords.htm
Привет, Гость.
Предлагаем пройти революционный курс по гитаре.
Подарок от PrimaNota.Ru, забирай!