PrimaNota.ru - самый крупный в мире бесплатный архив песенных текстов, аккордов, табулатур и нот


Donots - Good-bye Routine - бас-таба, видео

Регистрация Запомнить меня
Войти через:  Facebook Google Twitter Vk Yandex Mail.ru

Donots - Good-bye Routine - бас-таба, видео

Печатать
Просмотров: 125
Bass comes in 0.55

G|---------------------------------|
D|---------------------------------|
A|-4------------------64---64------|
E|------02----6----4----2----2----4|

G|------------------------------------|
D|------------------------------------|
A|-4-----------------9-111211-9---64--|
E|------02----6----4----------------2-|

Chorus        x3
G|------------|
D|------------|
A|-11---------|
E|----44-22-0-|

G|-----------------|
D|-----------------|
A|-11--------------|
E|----44-22-0-0-22-|

Ending
G|----------------------------------------------------------------------------------------|
D|-----------------------02-4-6-8-----------------------------------02-4-6-8--------------|
A|-4-11-9-9--4-11-9-9--1----------4-11-9-9--4-11-9-9--4\1616-9-9--1----------4-11-9-9-4~~-|
E|----------------------------------------------------------------------------------------|

Please rate it
Добавлено: 06.05.2012
Другие материалы по этой песне:
  • Аккорды и текст

Страница создана 06.05.2012
http://primanota.ru/donots/good-bye-routine-chords.htm
Привет, Гость.
Предлагаем пройти революционный курс по гитаре.
Подарок от PrimaNota.Ru, забирай!